PrimaNota.ru - самый крупный в мире бесплатный архив песенных текстов, аккордов, табулатур и нот


Jerk - Rise - таба, видео

Регистрация Запомнить меня
Войти через:  Facebook Google Twitter Vk Yandex Mail.ru

Jerk - Rise - таба, видео

Печатать
Просмотров: 98
-------------------------------------------------------------------------------
                                 RISE - Jerk
-------------------------------------------------------------------------------
Tabbed by: teo.rockgirl

Tuning: Drop A#

   Intro
 C|------------------------------------|-----------------------------------------|
 G|------------------------------------|-----------------------------------------|
D#|------------------------------------|-----------------------------------------|
A#|--0h2--2p0--2/0----0-0h3--3h0--3/0--|--0-0h2--2p0--2/0----0-0h3--3h0--3-3-----|
 F|--0h2--2p0--2/0----0-0h3--3h0--3/0--|--0-0h2--2p0--2/0----0-0h3--3h0--3-3-----|
A#|--0h2--2p0--2/0----0-0h3--3h0--3/0--|--0-0h2--2p0--2/0----0-0h3--3h0--3-3-----|

 C|--------------------|
 G|--------------------|
D#|--------------------|
A#|--------------------|
 F|--X/5-4-3~~---------|
A#|--------------------|

   Verse
 C|----------------------------------|
 G|----------------------------------|
D#|----------------------------------|
A#|-----------2---2----2---2---------|
 F|-----------2---2----2---2---------|
A#|-----------2---2----2---2---------|
    "C'mon, TELL ME! TELL ME!"

 C|----------------------------------|
 G|----------------------------------|
D#|----------------------------------|
A#|---2---2--------2---2-------------|
 F|---2---2--------2---2-------------|
A#|---2---2--------2---2-------------|
    "SAY IT! Just SAY IY!"

   Chorus (same as the intro, different ending)
 C|------------------------------------|-----------------------------------------|
 G|------------------------------------|-----------------------------------------|
D#|------------------------------------|-----------------------------------------|
A#|--0h2--2p0--2/0----0-0h3--3h0--3/0--|--0-0h2--2p0--2/0----0-0h3--3h0--3-3-----|
 F|--0h2--2p0--2/0----0-0h3--3h0--3/0--|--0-0h2--2p0--2/0----0-0h3--3h0--3-3-----|
A#|--0h2--2p0--2/0----0-0h3--3h0--3/0--|--0-0h2--2p0--2/0----0-0h3--3h0--3-3-----|

 C|------------------------|
 G|------------------------|
D#|------------------------|
A#|--------------14/X------|
 F|--X/5-4-3~~---14/X------|
A#|--------------14/X------|

   Verse
 C|------------------------------|
 G|------------------------------|
D#|------------------------------|
A#|----------2--2---2--2---------|
 F|----------2--2---2--2---------|
A#|----------2--2---2--2---------|
    "C'mon, DO IT! DO IT!"

 C|------------------------------|
 G|------------------------------|
D#|------------------------------|
A#|-------2-2-----------2-2------|
 F|-------2-2-----------2-2------|
A#|-------2-2-----------2-2------|
    "NOT FINISHED! NOT FINISHED!"

   Solo (rhythm guitar)
 C|-----------------------------------------------------------|
 G|-----------------------------------------------------------|
D#|-----------------------------------------------------------|
A#|------------------------5-5---5/4/5/4----------------------| x4
 F|--5-5---5-5h6p5-5h6p5---3-3---3/2/3/2----------------------|
A#|--0-0---0-0-0-0-0-0-0------------------0-0h3^5-------------|

   After solo (clean guitar)                    |(distorsion)
 C|---------------------------------------------|--------------------------------|
 G|---------------------------------------------|--------------------------------|
D#|------7----7-----7-----7-----7-----7-----7---|--------------------------------|
A#|---------------------------------------------|-2---2--------2---2-------------|
 F|---7----7-----8-----8-----7-----7-----8----8-|-2---2--------2---2-------------|
A#|---------------------------------------------|-2---2--------2---2-------------|
   "So what you're saying..."                  "FUCK IT! Just FUCK IT!"

   Before solo (3:02)
   Guitar 1 (guitar 2 slides slow)
 C|---------------------------------|
 G|---------------------------------|
D#|---------------------------------|
A#|--0.....-------------------------|
 F|--0.....-------------------------|
A#|--0.....-------------------------|

   Solo (3:22 - lead guitar)
 C|------------------------------------------------------|
 G|--------------8^10^9----------------------------------|
D#|--7~-7h8/5~--7----------------------------------------|
A#|------------------------------------------------------|x7
 F|------------------------------------------------------|
A#|------------------------------------------------------|

   End
 C|-------------------------|
 G|-------------------------|
D#|-------------------------|
A#|--0.....-----------------|
 F|--0.....-----------------|
A#|--0.....-----------------|


************************************

 h - hammer on
 p - pull off
 / - slide
 ^ - bend
 ~ - vibrato

************************************
Добавлено: 28.09.2015
Другие материалы по этой песне:
  • Аккорды и текст

Страница создана 28.09.2015
http://primanota.ru/jerk/rise-chords.htm
Привет, Гость.
Предлагаем пройти революционный курс по гитаре.
Подарок от PrimaNota.Ru, забирай!