PrimaNota.ru - самый крупный в мире бесплатный архив песенных текстов, аккордов, табулатур и нот


Jerk - Disintegrating - текст песни, таба, видео

Регистрация Запомнить меня
Войти через:  Facebook Google Twitter Vk Yandex Mail.ru

Jerk - Disintegrating - текст песни, таба, видео

Печатать
Просмотров: 76
-------------------------------------------------------------------------------
                           DISINTEGRATING - Jerk
-------------------------------------------------------------------------------
Tabbed by: teo.rockgirl

Tuning: Drop C



   Intro/Chorus
 D|----------------------------------------|-----------------------------------|
 A|----------------------------------------|-----------------------------------|
 F|----------------------------------------|-----------------------------------|
 C|----------------------------------------|-----------------------------------|
 G|----------------------------------------|-----------------------------------|
 C|--0-12-0-12-0---0-12-0-12-0---X/6-5-4~--|--0-12-0-12-0---0-6-0---0-5-0-1^3--|

 D|----------------------------------|
 A|----------------------------------|
 F|----------------------------------|
 C|--0....---------------------------|
 G|--0....---------------------------|
 C|--0....---------------------------|



   (1:59)
 D|------------------------|
 A|------------------------|
 F|------------------------|
 C|--1p0--0-0h1--1p0-------|
 G|--1p0--0-0h1--1p0-------|
 C|--1p0--0-0h1--1p0-------|



 D|-----------------------------------------------------------|-------------------|
 A|-----------------------------------------------------------|-------------------|
 F|-----------------------------------------------------------|-------------------|
 C|--1p0--0-0h1----1p0--0-0h1----1p0--0-0h1----1p0--0-0h1-----|--1-1-1-1-1-1-1-1--|
 G|--1p0--0-0h1----1p0--0-0h1----1p0--0-0h1----1p0--0-0h1-----|--1-1-1-1-1-1-1-1--|
 C|--1p0--0-0h1----1p0--0-0h1----1p0--0-0h1----1p0--0-0h1-----|--1-1-1-1-1-1-1-1--|
     * *  * * *    * *  * * *    * *  * * *    * *  * * *        * * * * * * * *
   "Too far..."                                                ends like this



   (2:54)
 D|------------------|---------------------------|
 A|------------------|---------------------------|
 F|------------------|---------------------------|
 C|--0---0---8---5---|---0---10---8---5----------|
 G|--0---0---8---5---|---0---10---8---5----------|
 C|--0---0---8---5---|---0---10---8---5----------|



   (3:46)
 D|-------------------------------------------------------------------------------|
 A|-------------------------------------------------------------------------------|
 F|-------------------------------------------------------------------------------|
 C|--0-5-0-8-0-5-0------0-5-0-10-0-5-0------0-5-0-1-0-5-0------0-5-0-8-0-5-0------|
 G|--0-5-0-8-0-5-0------0-5-0-10-0-5-0------0-5-0-1-0-5-0------0-5-0-8-0-5-0------|
 C|--0-5-0-8-0-5-0------0-5-0-10-0-5-0------0-5-0-1-0-5-0------0-5-0-8-0-5-0------|




************************************

 / - slide
 h - hammer on
 p - pull off
 * - palm mute
 ~ - vibrato
 ^ - bend

************************************
Добавлено: 28.09.2015
Вам также может быть интересно:
Другие материалы по этой песне:
  • Аккорды и текст

Страница создана 27.06.2012
http://primanota.ru/jerk/disintegrating-chords.htm
Привет, Гость.
Предлагаем пройти революционный курс по гитаре.
Подарок от PrimaNota.Ru, забирай!