PrimaNota.ru - самый крупный в мире бесплатный архив песенных текстов, аккордов, табулатур и нот


Jerk - Blow It All Away - текст песни, таба, видео

Регистрация Запомнить меня
Войти через:  Facebook Google Twitter Vk Yandex Mail.ru

Jerk - Blow It All Away - текст песни, таба, видео

Печатать
Просмотров: 194
Уроки эстрадного вокала в Санкт-Петербурге
First Guitar tab I ever made, from one of the greatest bands ever, enjoy

Artist: Jerk
Song Title: Blow It All Away
Song Length: 4:20
Website Band: http://www.myspace.com/jerkband

|-------------------------------------------|
|/--                      |  | |-- O |   |  |
||   |   o |  | |  | \ /  |  | |     |\  |  |
| \  | /   |\ | |\ |  V   |--| |-  | | \ |  |
|  | |<  | | \| | \|  |   |  | |   | |  \|  |
|--/ | \ | |  | |  |  |   |  | |-- | |   |  |
|-------------------------------------------|

intro (0:00-0:50)

E|------------------------|
B|------------------------|
G|------------------------|
D|------------------------|
A|-3-3--3/5--5--6-6-66--6-|
E|------------------------|

E|------------------------|
B|------------------------|
G|------------------------|
D|------------------------|
A|-3-3--3/5--5-1-1-1^0--0-|
E|------------------------| [x4]

part 2 (0:50-1:15)

E|-------------------------|
B|-------------------------|
G|-5---5-8-7-5--8-7-5------|
D|-5---5-8-7-5--8-7-5---6--|
A|-3---3-6-5-3--6-5-3---6--|
E|----------------------4--|

E|-------------------------|
B|-------------------------|
G|-5---5-8-7-5--8-7-5------|
D|-5---5-8-7-5--8-7-5------|
A|-3---3-6-5-3--6-5-3------|
E|-------------------------| [x4]


(1:15-1:40)
intro [x2]


(1:40-2:05)
part 2 [x2]


part 3 (2:05-2:35) (play intro and part 2 [x2] finish with the first part)

E|------------------------------------------------|
B|------------------------------------------------|
G|------------------------------------------------|
D|-8-8-8-8-8-8-8-8---11-11-11-11--10-10--10-11-10-|
A|-6-6-6-6-6-6-6-6---9--9--9--9---8--8---8--9--8--|
E|------------------------------------------------|

E|------------------------------------------------|
B|------------------------------------------------|
G|------------------------------------------------|
D|-------------------------------7-7-7-7----------|
A|-10-10-10-10-10-10-10-10--10---5-5-5-5--8-7-8-7-|
E|-8--8--8--8--8--8--8--8---8-------------6-5-6-5-|


(2:35-2:40)
part 2 [x1]

(2:40-3:20)
intro [x3]

(3:20-3:45)
part 2 [x4]

(3:45-4:10)
part 3 + part 4 (at the same time) [x2]


part 4 

E|-----------------------------------------------------------------------|
B|-----------------------------------------------------------------------|
G|-----------------------------------------------------------------------|
D|-------------------10\3--3-3-3-3-3--10\1--1-1-1-1-1--------------------|
A|-10-10-10-10-10-10----------------------------------3/8--8-8-8-8-8-8-8-|
E|-----------------------------------------------------------------------|

part 5 (4:10-4:15)
  
E|--------------------------------------|
B|--------------------------------------|
G|--------------------------------------|
D|-5-5-5-5-5-5-5-5--8-8-8-8-10-10-10-10-|
A|--------------------------------------|
E|--------------------------------------|

part 2 (4:15-End)
Добавлено: 19.03.2012
Другие материалы по этой песне:

Страница создана 17.03.2012
http://primanota.ru/jerk/blow-it-all-away-chords.htm
Привет, Гость.
Предлагаем пройти революционный курс по гитаре.
Подарок от PrimaNota.Ru, забирай!