PrimaNota.ru - самый крупный в мире бесплатный архив песенных текстов, аккордов, табулатур и нот


Jeremy Messersmith - Someday Someone - таба, видео

Регистрация Запомнить меня
Войти через:  Facebook Google Twitter Vk Yandex Mail.ru

Jeremy Messersmith - Someday Someone - таба, видео

Печатать
Просмотров: 34
-------------------------------------------------------------------------------
                             Someday, Someone - Jeremy Messersmith
-------------------------------------------------------------------------------
Tabbed by: John Sleight

Tuning: Standard
No Capo

I searched everywhere for this tab and couldn't find it. 
Which is sad because it's such and cute/funny song. 
So I decided to just make my own tab for it. 
As far as I know it's 100% correct.
Except for the solo bit because I can't
figure it out. But repeating the intro works
just as well.

************************************

| h   hammer-on

************************************


Intro x2
    D           Em          A           D
E|--2-----------0-----------------0-----2-----------|
B|--------3-----------0-----2-----------------3-----|
G|-----2-----2-----0-----0-----2-----2-----2-----2--|
D|--0-----------------------------------0-----------|
A|--------------------------0-----------------------|
E|--------------0-----------------------------------|

Verse x4
    D           Em          A           D
E|--2-----------0-----------------0-----2-----------|
B|--------3-----------0-----2-----------------3-----|
G|-----2-----2-----0-----0-----2-----2-----2-----2--|
D|--0-----------------------------------0-----------|
A|--------------------------0-----------------------|
E|--------------0-----------------------------------|
    Someday, someone will love the fuck out of you
    Love your crazy point of view
    Love you when you're feeling blue
    They'll love every thing you do

Chorus
    Bm                      E
E|--2-----------2-----------0-----------0-----------|
B|--------3-----------3-----------0-----------0-----|
G|-----4-----4-----4-----4-----1-----1-----1-----1--|
D|--------------------------------------------------|
A|--2-----------2-----------------------------------|
E|--------------------------0-----------0-----------|
    Someoooooooooooooooone  Truuuuuuuuuuuuuuuue

    Bm                      A
E|--2-----------2-----------------------------------|
B|--------3-----------3-----3--------3--2-----------|
G|-----4-----4-----4-----4--------2-----------------|
D|-----------------------------2--------------------|
A|--2-----------2-----------0-----------0-----------|
E|--------------------------------------------------|
    Somedaaaaaaaaaaaaaaaay  Sooooooooooooooon

Solo x2
    D           Em          A           D
E|--2-----------0-----------------0-----2-----------|
B|--------3-----------0-----2-----------------3-----|
G|-----2-----2-----0-----0-----2-----2-----2-----2--|
D|--0-----------------------------------0-----------|
A|--------------------------0-----------------------|
E|--------------0-----------------------------------|

Chorus
    Bm                      E
E|--2-----------2-----------0-----------0-----------|
B|--------3-----------3-----------0-----------0-----|
G|-----4-----4-----4-----4-----1-----1-----1-----1--|
D|--------------------------------------------------|
A|--2-----------2-----------------------------------|
E|--------------------------0-----------0-----------|
    Someoooooooooooooooone  Truuuuuuuuuuuuuuuue

    Bm                      A
E|--2-----------2-----------------------------------|
B|--------3-----------3-----3--------3--2-----------|
G|-----4-----4-----4-----4--------2-----------------|
D|-----------------------------2--------------------|
A|--2-----------2-----------0-----------0-----------|
E|--------------------------------------------------|
    Somedaaaaaaaaaaaaaaaay  Sooooooooooooooon
        
Verse 2
    D           Em          A           D
E|--2-----------0-----------------0-----2-----------|
B|--------3-----------0-----2-----------------3-----|
G|-----2-----2-----0-----0-----2-----2-----2-----2--|
D|--0-----------------------------------0-----------|
A|--------------------------0-----------------------|
E|--------------0-----------------------------------|
    Someday, someone will love the fuck out of you
        
    D           Em          A           D
E|--2-----------0-----------------0-----------0h2---|
B|--------3-----------0-----2---------------3-------|
G|-----2-----2-----0-----0-----2-----2----2---------|
D|--0-----------------------------------0-----------|
A|--------------------------0-----------------------|
E|--------------0-----------------------------------|
    I will if you want me to

END
Добавлено: 18.06.2016
Другие материалы по этой песне:
  • Аккорды и текст

Страница создана 18.06.2016
http://primanota.ru/jeremy-messersmith/someday-someone-chords.htm
Привет, Гость.
Предлагаем пройти революционный курс по гитаре.
Подарок от PrimaNota.Ru, забирай!