PrimaNota.ru - самый крупный в мире бесплатный архив песенных текстов, аккордов, табулатур и нот


Jeremy Messersmith - John The Determinist Live - аккорды и текст, видео

Регистрация Запомнить меня
Войти через:  Facebook Google Twitter Vk Yandex Mail.ru

Jeremy Messersmith - John The Determinist Live - аккорды и текст, видео

Печатать
Просмотров: 51
John The Determinist Live
Jeremy Messersmith
-------------------------------------------------------------------------------
                  John the Determinist (Live) - Jeremy Messersmith
-------------------------------------------------------------------------------

Based on the Live Version seen here: https://www.youtube.com/watch?v=CTdowMSmRPg

Transpose all chords one half-step up for album tuning.

Picking Pattern (consistent across all verses and choruses):
e|-----------------------------------|
B|-----------------------------------|
G|------x-----x----------------------| x2 for each chord, x4 for last chord in verse and chorus
D|----x-----x-----x------------------|
A|--x-----x-----x--------------------|
E|-----------------------------------|

Verse:
e|-----------------------------------|
B|-----------------------------------|
G|--6---6---6--4--4---2----1---------|
D|--7---6---7--4--4---4----4---------|
A|--9---8---7--6--5---4----4---------|
E|-----------------------------------|
    F#m C#  A  B  Bm  F#m  F#msus2

Chorus:
e|-----------------------------------|
B|-----------------------------------|
G|--2--2----1---2--------------------|
D|--4--4----3---4--------------------|
A|--5--4----4---4--------------------|
E|-----------------------------------|
    D  F#m  C#  F#m


F#m                           C#
Polished up and standing in a row 
A                             B
Wind up the gears, watch them go 
Bm                             
People made of spring and sparks 
F#m                         F#msus2
Humming with electric hearts 


F#m                           C#
Hoping for a ghost inside the shell 
A                             B
But if it's there it's hidden well 
Bm
All we are is ticks and tocks 
F#m                      F#msus2      
Seconds in a pocket watch 


D            F#m
Oh you silly things 
C#                   F#m
I've got you figured out 
D            F#m
Oh you silly things 
C#                   F#m
I've got you figured out 

D      F#m
       Oo-oo-ooh
D      F#m
       Oo-oo-ooh
D      F#m
       Oo-oo-ooh
C#
Ooooh


F#m                  C#
Walking on a January lake 
A                        B
I feel the ice around me break 
Bm
One more ripple in the pond 
F#m                          F#msus2
Stretches out until it's calm


D            F#m
Oh you silly things 
C#                   F#m
I've got you figured out 
D            F#m
Oh you silly things 
C#                   F#m
I've got you figured out 

D       F#m
        Oo-oo-ooh
D       F#m
        Oo-oo-ooh
D       F#m
        Oo-oo-ooh
C#                  D
Ooooh         I see one
F#m           D
All we all we are
F#m           D
All we all we are
F#m           C#
All we all we are
Добавлено: 01.12.2015
Вам также может быть интересно:
Другие материалы по этой песне:
  • Аккорды и текст

Страница создана 01.12.2015
http://primanota.ru/jeremy-messersmith/john-determinist-live-chords.htm
Привет, Гость.
Предлагаем пройти революционный курс по гитаре.
Подарок от PrimaNota.Ru, забирай!