PrimaNota.ru - самый крупный в мире бесплатный архив песенных текстов, аккордов, табулатур и нот


Jeremy Loops - Down South Live - таба, видео

Регистрация Запомнить меня
Войти через:  Facebook Google Twitter Vk Yandex Mail.ru

Jeremy Loops - Down South Live - таба, видео

Печатать
Просмотров: 35
Новый альбом группы 'Черный Кузнец' по культовому сериалу 'Сверхъестественное'!
YouTube: https://youtu.be/XobvqF8gdBM?t=1m02s

Got the tab by listening to the live versions. It should be quite similar to what he's playing. 
Feel free to submit your corrections or additional elements. Thanks!

The song basically consists of 4 loops (plus some that I didn't manage to work out, e.g. the bass): 

[1st loop]
(Vocal, melody is)
e|--6--4h6--6-----------------6--4h6--6----6--4h6----|
B|------------7h4-4---4--4--4------------4-----------|
G|------------------6--------------------------------|
D|---------------------------------------------------|
A|---------------------------------------------------|
E|---------------------------------------------------|

[2nd loop]
(Vocal "Aaaaah, aaaah, aaaah, aaaah-oh")
e|--6-------4-------2--------4p2-\1------------------|
B|---------------------------------------------------|
G|---------------------------------------------------|
D|---------------------------------------------------|
A|---------------------------------------------------|
E|---------------------------------------------------|

[3rd loop] 
(vocal)
("down south" -- doesn't seem to have a melody...)

[4th loop]
e|----------------------------------------------------------------------|
B|-----4--4p2h4--4p2h4---4-4p2--------------------------------2---------|
G|-----------------------------3--3p1--3--1--3--3--1--3---1-3---3--1----|
D|----------------------------------------------------------------------|
A|----------------------------------------------------------------------|
E|----------------------------------------------------------------------|

(you could play D#m in 6th fret, C# in 4th and F#(sus4) in 2nd. but the original chords are) 
  D#m        C#        F#     F#sus4
e|--11--  E|--9---  E|--2--  E|--2--  
B|--11--  B|--9---  B|--2--  B|--2--  
G|--11--  G|--10--  G|--3--  G|--4--  
D|--13--  D|--11--  D|--4--  D|--4--  
A|--13--  A|--11--  A|--4--  A|--2--  
E|--11--  E|--9---  E|--2--  E|--2--  

8x:       D#m*       C#*       F#*       F#sus4* F#*
On the 8th repetition, everything mutes till the next measure begins (about 2sec). 
You'll work out the strumming pattern he uses from now on on your own. 
Добавлено: 13.02.2018
Другие материалы по этой песне:
  • Аккорды и текст

Страница создана 13.02.2018
http://primanota.ru/jeremy-loops/down-south-live-chords.htm
Привет, Гость.
Предлагаем пройти революционный курс по гитаре.
Подарок от PrimaNota.Ru, забирай!