PrimaNota.ru - самый крупный в мире бесплатный архив песенных текстов, аккордов, табулатур и нот


Jeremy Enigk - Lizard - таба, видео

Регистрация Запомнить меня
Войти через:  Facebook Google Twitter Vk Yandex Mail.ru

Jeremy Enigk - Lizard - таба, видео

Печатать
Просмотров: 82
		   LIZARD - written by Jeremy Enigk
======   available on Return of the Frog Queen


Acoustic guitar, standard tuning


*1


|---8-----------8-----------------------------------------------------
|-----0-----0-----0-----0---------------------------------------------
|---------0-----------0-----------------------------------------------
|-------0-----------0-------------------------------------------------
|-8-----------8-------------------------------------------------------
|---------------------------------------------------------------------
                         ^repeat
*2


|-8-----8-----8-----8-----3-----3-----1-----1-------------------------
|---0-----0-----0-----0-----0-----0-----0-----0-----------------------
|-----0-----0-----0-----0-----0-----0-----0-----0---------------------
|---------------------------------------------------------------------
|---------------------------------------------------------------------
|---------------------------------------------------------------------     
Добавлено: 07.07.2013
Вам также может быть интересно:
Другие материалы по этой песне:
  • Аккорды и текст

Страница создана 07.07.2013
http://primanota.ru/jeremy-enigk/lizard-chords.htm
Привет, Гость.
Предлагаем пройти революционный курс по гитаре.
Подарок от PrimaNota.Ru, забирай!