PrimaNota.ru - самый крупный в мире бесплатный архив песенных текстов, аккордов, табулатур и нот


Jeremy Enigk - Explain - таба, видео

Регистрация Запомнить меня
Войти через:  Facebook Google Twitter Vk Yandex Mail.ru

Jeremy Enigk - Explain - таба, видео

Печатать
Просмотров: 94
Уроки эстрадного вокала в Санкт-Петербурге
		   Explain
Artist: Jeremy Enigk
Album: Return of the Frog Queen


tuning:  DGCFAD


intro/verse:
---------------------------------|
--0-----1----/3-----\1-----------|
----0-----0-----0------0---------|
------0-----2----/4------\2------|
---------------------------------|
---------------------------------|


pre-chorus(some variation on the picking):
---------0-----------0-----------0-----------2-----|
-------1---1-------1---1-------1---1-----------3---|
-----0-------0---0-------0---0-------0---2-------2-|
---2-----------0-----------2-----------0---0-------|
---------------------------------------------------|
---------------------------------------------------|


chorus:
---------------------------------------------
---12-------12-------12------12--------------
------12-------12-------12------12-----------
---------12-------12-------12------12--------
---------------------------------------------
---------------------------------------------


(repeated)
-----------------------------------------------
-15-----13-----12-----8-----7----7---5---5-----
----0------0------0-----0-----0----0---0---0---
------0------0------0-----0-----0----0---0---0-
-----------------------------------------------
-----------------------------------------------


(after repeat)
----------------------------------------
--7----7----5----5----7----8----8-------
----0----0----0----0----0----0----0-----
------0----0----0----0----0----0----0---
----------------------------------------
----------------------------------------


chorus(end)
----------------------------------------|
--13-----13-----13-----13---------------|
-----0------0------0------0-------------|
-------12-----12-----12-----12----------|
----------------------------------------|
----------------------------------------|


If I could move the weight of everything, blind the skies and change the tomic
role, here I am and not the answers, only scars can show this time. I'm still
wandering round your door, how can I explain dear, you've been gone for some
time, but I still believe you'll be hear oh no, again.     
Добавлено: 01.06.2013
Другие материалы по этой песне:
  • Аккорды и текст

Страница создана 01.06.2013
http://primanota.ru/jeremy-enigk/explain-chords.htm
Привет, Гость.
Предлагаем пройти революционный курс по гитаре.
Подарок от PrimaNota.Ru, забирай!