PrimaNota.ru - самый крупный в мире бесплатный архив песенных текстов, аккордов, табулатур и нот


Jeremy Camp - Breathe - текст песни, таба, видео

Регистрация Запомнить меня
Войти через:  Facebook Google Twitter Vk Yandex Mail.ru

Jeremy Camp - Breathe - текст песни, таба, видео

Печатать
Просмотров: 131
this song is very rocky, but still a very good song

Jeremy Camp- breathe


intro and verse (alot of scratching)
E----------------------------------------------|
B----------------------------------------------|
G----------------------------------------------|
D-99-xxxxxx-99-xxxxxx-99-xxxxxx-12-x-7~--------|
A-99-xxxxxx-99-xxxxxx-99-xxxxxx-12-x-7~--------|
E-77-xxxxxx-77-xxxxxx-77-xxxxxx-10-x-5~--------|

prechorus
E-------------------------------------------------|
B-------------------------------------------------|
G-------------------------------------------------|
D-5-5-5-5--7-7-7-7--3-3-3-3--10-x-5~--------------|
A-5-5-5-5--7-7-7-7--3-3-3-3--10-x-5~--------------|
E-3-3-3-3--5-5-5-5--1-1-1-1---8-x-3~--------------|

chorus
E------------------------------------------------------|
B------------------------------------------------------|
G------------------------------------------------------|
D-7-7-7-7-7-3-3-3-3-3-10-10-10-10-10-5-5-5-5-5---------|
A-7-7-7-7-7-3-3-3-3-3-10-10-10-10-10-5-5-5-5-5---------|
E-5-5-5-5-5-1-1-1-1-1--8--8--8--8--8-3-3-3-3-3---------|

play the intro a little again

same verse

same chorus

bridge- its the same as the prechorus


the end
Добавлено: 17.05.2012
Другие материалы по этой песне:
  • Аккорды и текст

Страница создана 17.05.2012
http://primanota.ru/jeremy-camp/breathe-chords.htm
Привет, Гость.
Предлагаем пройти революционный курс по гитаре.
Подарок от PrimaNota.Ru, забирай!