PrimaNota.ru - самый крупный в мире бесплатный архив песенных текстов, аккордов, табулатур и нот


Jeremy Camp - All The Time - текст песни, таба, бас-таба, видео

Регистрация Запомнить меня
Войти через:  Facebook Google Twitter Vk Yandex Mail.ru

Jeremy Camp - All The Time - текст песни, таба, бас-таба, видео

Печатать
Просмотров: 208
Уроки эстрадного вокала в Санкт-Петербурге
Here it is

>   - strumming not defined
/ \ - slide
7x
7x  - mute after strumming
5x

Intro:  (GUITAR 1)
e|---------7-7-5-5---------7-7-5-5---------7-7-5-5---------------------------|
B|---------------------------------------------------------------------------|
G|---9-9-------------8-8-------------7-7-------------------------------------|
D|---------------------------------------------------------------------------|
A|-7-----7---------6-----6---------5-----5-----------------------------------|
E|---------------------------------------------------------------------------|


Intro:  (GUITAR 2)
e|-------------------|
B|-------------------|
G|-----------7>>-----|
D|-7>---9>---7>>-----|
A|-7>---9>---5>>-----|
E|-5>---7>-----------|


Verse:  "With every moment..."(2x, on 3rd and 4th strum straight through)
e|---------------------------------------------------------------------------|
B|---------------------------------------------------------------------------|
G|11-11x\--10-10x\--9-9x\--8-8x\---------------------------------------------|
D|-x--x-----x--x----x-x----x-x-----------------------------------------------|
A|-9--9x\---8--8x\--7-7x\--6-6x\---------------------------------------------|
E|---------------------------------------------------------------------------|

Chorus:  "All this time..."  (2x)
e|-------------------------------|
B|-------------------------------|
G|-----------7>>-----------------|
D|-7>---9>---7>>-----------------|
A|-7>---9>---5>>-----------------|
E|-5>---7>-----------------------|

Break:  (Repeat Verse)

Repeat Verse

Repeat Chorus

Bridge:
e|---------------------------------------------------------------------------|
B|---------------------------------------------------------------------------|
G|-9/11-11-11-9-9-9-9-9-9-9-9-6-6-7/9-4-4-4-4-4-4-4-4------------------------|
D|-x--x--x--x-x-x-x-x-x-x-x-x-x-x-x-x-x-x-x-x-x-x-x-x------------------------|
A|-7/-9--9--9-7-7-7-7-7-7-7-7-4-4-5/7-2-2-2-2-2-2-2-2------------------------|
E|---------------------------------------------------------------------------|

Bridge Cont'd:
e|---------------------------------------------------------------------------|
B|---------------------------------------------------------------------------|
G|-9/11-11-11-9-9-9-9-9-9-9-9-9/14-14-14-14/16-16-16-16-16-16-16-16----------|
D|-x--x--x--x-x-x-x-x-x-x-x-x-x--x--x--x--x--x--x--x--x--x--x--x--x----------|
A|-7/-9--9--9-7-7-7-7-7-7-7-7-7/12-12-12-12/14-14-14-14-14-14-14-14----------|
E|---------------------------------------------------------------------------|

Bridge Cont'd:
e|---------------------------------------------------------------------------|
B|---------------------------------------------------------------------------|
G|-14-x-16-x-14-14-14-14-14-14-14-14-6-6-7/9-4-4-4-4-4-4-4-4-----------------|
D|--x-x--x-x--x--x--x--x--x--x--x--x-x-x-x-x-x-x-x-x-x-x-x-x-----------------|
A|-12-x-14-x-12-12-12-12-12-12-12-12-4-4-5/7-2-2-2-2-2-2-2-2-----------------|
E|---------------------------------------------------------------------------|

Bridge Cont'd:
e|---------------------------------------------------------------------------|
B|---------------------------------------------------------------------------|
G|-14-x-16-x-9-9-9-9-9-9-9-9-9/14-14-14-14/16-16-16-16-16-16-16-16-----------|
D|--x-x--x-x-x-x-x-x-x-x-x-x-x--x--x--x--x--x--x--x--x--x--x--x--x-----------|
A|-12-x-14-x-7-7-7-7-7-7-7-7-7/12-12-12-12/14-14-14-14-14-14-14-14-----------|
E|---------------------------------------------------------------------------|

Repeat Break

Repeat Chorus:  (4x)

Ending:
e|-----------|
B|-----------|
G|-----------|
D|-7--7-7x---|
A|-7--7-7x---|
E|-5--5-5x---|
Добавлено: 08.06.2012
Другие материалы по этой песне:
  • Аккорды и текст

Страница создана 23.05.2012
http://primanota.ru/jeremy-camp/all-the-time-chords.htm
Привет, Гость.
Предлагаем пройти революционный курс по гитаре.
Подарок от PrimaNota.Ru, забирай!