PrimaNota.ru - самый крупный в мире бесплатный архив песенных текстов, аккордов, табулатур и нот


Jens Lekman - Kanske Ar Jar Kar I Dig - таба, видео

Регистрация Запомнить меня
Войти через:  Facebook Google Twitter Vk Yandex Mail.ru

Jens Lekman - Kanske Ar Jar Kar I Dig - таба, видео

Печатать
Просмотров: 141
-----------------------------------------------------------------------------
                    Kanske Ar Jar Kar I Dig - Jens Lekman
-----------------------------------------------------------------------------
Tabbed by: David K.
Email: thischarmingman13@gmail.com

Tuning: Standard

Here's how I play it: http://www.youtube.com/watch?v=ubiD7e2P_7I
There's more to the song that I didn't tab out, it's easy to figure out

                    (:48)                (ending)
e|-3--4--1-8--7-----8-6-8--10-----------11-11-11-10-10-10-6-6-6-4-4-4-6-4-3---|
B|-3--4--1-8--6-----8-6-9--11-11--9-8---13-13-13-10-11-11-8-8-8-6-6-6-8-6-4-4-|
G|-3--5--1-8--7-----8-7-8--10-12-10-8---------------------------------------5-|
D|-5--6--3-10-5-----6-8-10-12-------------------------------------------------|
A|----------------------8--10-------------------------------------------------|
E|----------------------------------------------------------------------------|

e|-3--------------------------------------------------------------------------|
B|-4--------------------------------------------------------------------------|
G|----------------------------------------------------------------------------|
D|----------------------------------------------------------------------------|
A|----------------------------------------------------------------------------|
E|----------------------------------------------------------------------------|

These chords are repeated in various ways throughout the song with muting in the order
E-mail me with questions

| /  slide up
| \  slide down
| h  hammer-on
| p  pull-off
| ~  vibrato
| +  harmonic
| x  Mute note
===============================================================================
Добавлено: 07.07.2012
Другие материалы по этой песне:
  • Аккорды и текст

Страница создана 07.07.2012
http://primanota.ru/jens-lekman/kanske-ar-jar-kar-i-dig-chords.htm
Привет, Гость.
Предлагаем пройти революционный курс по гитаре.
Подарок от PrimaNota.Ru, забирай!