PrimaNota.ru - самый крупный в мире бесплатный архив песенных текстов, аккордов, табулатур и нот


Jenny Suk - No Good - таба, видео

Регистрация Запомнить меня
Войти через:  Facebook Google Twitter Vk Yandex Mail.ru

Jenny Suk - No Good - таба, видео

Печатать
Просмотров: 135
-------------------------------------------------
              "No Good” - Jenny Suk
         http://youtu.be/Ly_IC9JmczM
-------------------------------------------------
Tabbed by: Justin Riray               Subscribe!
Youtube:   http://www.youtube.com/JustinRiray
Facebook:  http://www.facebook.com/Riray

Hey guys, I know it's been a while since I've
tabbed. But check Jenny Suk out, amazing
performer/singer/songwriter. Real cool chick too.
http://www.youtube.com/msxjenixe

Tuning: Standard        Timing: 6/8

     INTRO
e|-7---4---3-2---2-4----7---4---3-2---0--------|
B|-9---4---3-2---2-4----9---4---3-2---0--------|
G|-8---4---3-2---2------8---4---3-2---2--------|
D|-9---4---3-2---2------9---4---3-2---1--------|
A|-7---x---x-x---2------7---x---x-x---2--------|
E|-7---4---3-2----------7---4---3-2---0--------|

     VERSE
e|--7---4---3-2---0----------------------------|
B|--9---4---3-2---0----------------------------|
G|--8---4---3-2---2----------------------------|
D|--9---4---3-2---1----------------------------|
A|--7---x---x-x---2----------------------------|
E|--7---4---3-2---0----------------------------|

     Pre-CHORUS
e|--4---4---2---0----4---4--------2--0---------|
B|--4---5---2---0----4---5---5----2--0---------|
G|--4---6---2---2----4---6---6----2--2---------|
D|--6---6---2---1----5---6---6----2--1---------|
A|--6---4---x---2----5---4---x----x--2---------|
E|--4-------2---0----4-------5----2--0---------|

     CHORUS                   Post-CHORUS
e|--7---7---------------------------9----------|
B|--9---7--7--5---5----------4------10---------|
G|--8---7--7--6---5----------4--4---9----------|
D|--9---7--6--6---5----------4--3---11---------|
A|--7---x--7--x---x----------x--4---9----------|
E|--7---7-----5---5----------4------9----------|

     BRIDGE
e|-----------------0-----2---0-----------------|
B|-----4-----4-----0-----2---0-----------------|
G|--6--4--6--4-(3)-6-----2---2-----------------|
D|--6--4--6--4-(3)-6-----2---1-----------------|
A|--x--x--x--x-(x)-x-----x---2-----------------|
E|--5--4--5--4-(3)-5-----2---0-----------------|
Добавлено: 05.03.2012
Вам также может быть интересно:
Другие материалы по этой песне:
  • Аккорды и текст

Страница создана 05.03.2012
http://primanota.ru/jenny-suk/no-good-chords.htm
Привет, Гость.
Предлагаем пройти революционный курс по гитаре.
Подарок от PrimaNota.Ru, забирай!