PrimaNota.ru - самый крупный в мире бесплатный архив песенных текстов, аккордов, табулатур и нот


Jenny And The Mexicats - Llueve En El Mar - таба, видео

Регистрация Запомнить меня
Войти через:  Facebook Google Twitter Vk Yandex Mail.ru

Jenny And The Mexicats - Llueve En El Mar - таба, видео

Печатать
Просмотров: 46
-------------------------------------------------------------------------------
                        Llueve en el Mar - Jenny And The Mexicats
-------------------------------------------------------------------------------
Tabbed by: galaviz19

Esto es una parte del intro, si tienen alguna sugerencia sobre las partes que faltan o quieren 
corregir algo
les dejo mi correo. galavizma16@hotmail.com

Espero les sirva de algo, subire las demas partes tan pronto las tenga.


Tuning: Estandar EADGBE                                      


Repetir 2 veces
e|--------------5---7---8------------5---7---8---7---5--5---------------------|
B|----------------------------------------------------------------------------|
G|--------------5---7---7------------5---7---7---7---5--5---------------------|
D|----------------------------------------------------------------------------|
A|----------------------------------------------------------------------------|
E|-------0---5----------------0---5-------------------------------------------|


--El requinteo esta incompleto--

e|---------------------------------------------------------------------------|
B|---------------------------------------------------------------------------|
G|-------9-9-9-9-9-9-9-99-10-9-----------------------------------------------|
D|-----------------------------12-9---9-9-10-12-12-9-9-6-6-------------------|
A|---------------------------------------------------------7-7-7-5-----------|
E|-----------------------------------------------------------------8---------|


------aqui sigue una parte que no he podido completar pero despues sigue esto---


e|--------------8------8--------7-----7--------|  
B|----------10-----10-----10-9-9-9-9-9-9-------|
G|-------999--99-99--99-99----7---7-7---7------| Aqui va la parte final del intro y comienza el canto
D|---------------------------------------------|
A|---------------------------------------------|
E|---------------------------------------------|




************************************

| /   slide up
| \   slide down
| h   hammer-on
| p   pull-off
| ~   vibrato
| +   harmonic
| x   Mute note
| b   Bend
| pb  Pre-bend
| br  Bend release
| pbr Pre-bend release
| brb Bend release bend

************************************
Добавлено: 05.10.2014
Другие материалы по этой песне:
  • Аккорды и текст

Страница создана 05.10.2014
http://primanota.ru/jenny-and-mexicats/llueve-en-el-mar-chords.htm
Привет, Гость.
Предлагаем пройти революционный курс по гитаре.
Подарок от PrimaNota.Ru, забирай!