PrimaNota.ru - самый крупный в мире бесплатный архив песенных текстов, аккордов, табулатур и нот


Jennifer Rostock - Wieder Gehts Von Vorne Los - бас-таба, видео

Регистрация Запомнить меня
Войти через:  Facebook Google Twitter Vk Yandex Mail.ru

Jennifer Rostock - Wieder Gehts Von Vorne Los - бас-таба, видео

Печатать
Просмотров: 125
*******************************************************
Jennifer Rostock - Wieder geht's von vorne los
*******************************************************

-tabbed by "zero83" 
-Standard Tuning 
-You'll find videos to my tabs on www.youtube.com/user/blacksystem83 
-PLEASE RATE AND COMMENT! =)

INTRO
 ----------------------------------|
 ----------------------------------|
 -----------------88888888---------|
 -8888888888888888--------88888888-|

STROPHE 0:17
 -------------------------------x2-|
 ----------------------------------|
 ---------8888888810101010---------|
 -88888888----------------88888888-|

PRE 0:27
 ---------------------------------- ----------------------------------|
 ---------------------------------- ----------------------------------|
 -8888888810101010--------10101010- -8888888810101010--------10101010-|
 -----------------88888888--------- -----------------88888888---------|

REFRAIN 0:37
 -------------------------------3x- -------------------------------1x-|
 ---------------------------------- ----------------------------------|
 ---------88888888----------------- ---------88888888--------10101010-|
 -11111111--------8888888888888888- -11111111--------88888888---------|

BREAK 0:59
 ---------------------------------- ----------------------------------|
 ---------------------------------- ----------------------------------|
 ---------------------------------- -----------------8888888888888888-|
 ---------------------------------- -8888888888888888-----------------|

STROPHE 1:03

PRE
 ---------------------------------- ---------------------------------|
 ---------------------------------- ---------------------------------|
 -8888888810101010------1010101010- -8888888810101010----------------|
 -----------------8888/------------ ---------------------------------|

REFRAIN 1:23

BREAK 1:42
 ---------------------------------|
 ---------------------------------|
 ---------------------------------|
 -8-8-8-8-8-8-8-8-8-8-8-8-8-8-8-8-|

 ------------------------------5x- ---------------------------------|
 --------------------------------- ---------------------------------|
 ---------6-6-6-6----------------- ---------6-6-6-6-----------------|
 -8-8-8-8---------6-6-6-6-8-8-8-8- -8-8-8-8---------6-6-6-6-8\\-----|

REFRAIN 2:16

ENDE
 ------------|
 ------------|
 ------------|
 --------8\\-|
Добавлено: 07.06.2012
Другие материалы по этой песне:
  • Аккорды и текст

Страница создана 07.06.2012
http://primanota.ru/jennifer-rostock/wieder-gehts-von-vorne-los-chords.htm
Привет, Гость.
Предлагаем пройти революционный курс по гитаре.
Подарок от PrimaNota.Ru, забирай!