PrimaNota.ru - самый крупный в мире бесплатный архив песенных текстов, аккордов, табулатур и нот


Jennifer Rostock - Tier In Dir - бас-таба, видео

Регистрация Запомнить меня
Войти через:  Facebook Google Twitter Vk Yandex Mail.ru

Jennifer Rostock - Tier In Dir - бас-таба, видео

Печатать
Просмотров: 145
Уроки эстрадного вокала в Санкт-Петербурге
Авторы музыки: Jennifer Weist, Johannes Walter-Müller
Авторы текста: Jennifer Weist, Johannes Walter-Müller
************************************
Jennifer Rostock - Tier in Dir
************************************

-tabbed by "zero83" 
-Standard Tuning 
-You'll find videos to my tabs on www.youtube.com/user/blacksystem83 
-PLEASE RATE AND COMMENT! =)

 INTRO 
|--------------------------------|
|----12---10----12-12-10---------|
|------------------------12-10---|
|-10---10----10----------------13|

 VERSE 
|--------------------------------------------------------------|
|-----------------------------10-10-1010-101010----------------|
|-----------------------------------------------10-1010-1010---|
|-10-1010-10101013-1313-131313------------------------------13-|

 "Alles bleibt..."
|--------------------------------|
|--------------------------------|
|--------------------------------|
|-8----8---8-8-8-----------------|

 REFRAIN 
|--------------------------------|
|--------------------------------|
|--------3--3-3------------------|
|-1--1-1--------3--3-3-5--6--6-6-|

 INTRO 2x (1:21)

 VERSE 4x

 "Alles bleibt..."

 REFRAIN 4x

 "Halt mich..." (2:26) 
|--------------------------------|
|--------------------------------|
|--------0--1--1-1---------------|
|----3---------------------------|

 REFRAIN

 "Das Kind..."
|--------------------------------|
|--------------------------------|
|--------------------------------|
|-8-8-8-8-8----------------------|

 INTRO

|--------------------------------|
|--------------------------------|
|--------------------------------|
|-8-----8-----8------------------|

 REFRAIN

 SOLO
|--------------------------------|
|---------88888888-------55666655|
|-66666666--------8888888--------|
|--------------------------------|
Добавлено: 23.04.2012
Другие материалы по этой песне:
  • Аккорды и текст

Страница создана 23.04.2012
http://primanota.ru/jennifer-rostock/tier-in-dir-chords.htm
Привет, Гость.
Предлагаем пройти революционный курс по гитаре.
Подарок от PrimaNota.Ru, забирай!