PrimaNota.ru - самый крупный в мире бесплатный архив песенных текстов, аккордов, табулатур и нот


Jennifer Rostock - Schmutzig Schmutzig - бас-таба, видео

Регистрация Запомнить меня
Войти через:  Facebook Google Twitter Vk Yandex Mail.ru

Jennifer Rostock - Schmutzig Schmutzig - бас-таба, видео

Печатать
Просмотров: 171
Уроки эстрадного вокала в Санкт-Петербурге
*******************************************
Jennifer Rostock - Schmutzig! Schmutzig!
*******************************************

-tabbed by "zero83" 
-Standard Tuning 
-You'll find videos to my tabs on www.youtube.com/user/blacksystem83 
-PLEASE RATE AND COMMENT! =)

-INTRO:   x4
G-----------|
D-----------|
A-5-5-5-503-|
E-----------|

-VERSE 1:
G-----------------------------------------------------------------|
D---------------------------------1010101010101010-8-8-8-8-8-8-8-8|
A-5-5-5-5-5-5-5-5-8-8-8-8-8-8-8-8---------------------------------|
E-----------------------------------------------------------------|

|-----------------------------------------------------------------|
|---------------------------------1010101010101010-7-7-7-7-7-7-7-7|
|-5-5-5-5-5-5-5-5-8-8-8-8-8-8-8-8---------------------------------|
|-----------------------------------------------------------------|

-REFRAIN:
G-----------------------------------------------------------------|
D---------------------------------1010101010101010----------------|
A-5-5-5-5-5-5-5-5-1010101010101010----------------1010101010101010|
E-----------------------------------------------------------------|

|-----------------------------------------------------------------|
|--------------------------------1010101010101010-8-8-8-8-8-------|
|-5-5-5-5-5-5-5-5-1010101010101010--------------------------------|
|-----------------------------------------------------------------|

-INTRO x4

-VERSE 2:
G-----------------------------------------------------------------|
D-----------------------------------------------------------------|
A-5-------5--------8-8-8-8-8-8-8-8-3-3-3-3-3-3-3-3----------------|
E--------------------------------------------------5-5-5-5-5-5-5-5|

|-----------------------------------------------------------------|
|---------------------------------1010101010101010----------------|
|-5-5-5-5-5-5-5-5-8-8-8-8-8-8-8-8------------------10\\\\\--------|
|-----------------------------------------------------------------|

-REFRAIN

-INTRO

-VERSE 3:
G-----------------------------------------------------------------|
D---------------------------------10--10--10--10------------------|
A-8---8---8---8---10--10--10--10------------------10--10--10--10--|
E-----------------------------------------------------------------|

|-----------------------------------------------------------------|
|---------------------------------10--10--10--10--10101010101010--|
|-8---8---8---8---10--10--10--10----------------------------------|
|-----------------------------------------------------------------|

|-----------------------------------------------------------------|
|---------------------------------10--101010101010----------------|
|-------------------------------------------------1010101010101010|
|-----------------------------------------------------------------|

|-----------------------------------------------------------------|
|---------------------------------1010101010101010----------------|
|-5-5-5-5-5-5-5-5-1010101010101010----------------1010101010101010|
|-----------------------------------------------------------------|

-REFRAIN

-INTRO x2

PLEASE RATE !!! =)
Добавлено: 20.05.2012
Другие материалы по этой песне:
  • Аккорды и текст

Страница создана 20.05.2012
http://primanota.ru/jennifer-rostock/schmutzig-schmutzig-chords.htm
Привет, Гость.
Предлагаем пройти революционный курс по гитаре.
Подарок от PrimaNota.Ru, забирай!