PrimaNota.ru - самый крупный в мире бесплатный архив песенных текстов, аккордов, табулатур и нот


Jennifer Rostock - Mongoloid - бас-таба, видео

Регистрация Запомнить меня
Войти через:  Facebook Google Twitter Vk Yandex Mail.ru

Jennifer Rostock - Mongoloid - бас-таба, видео

Печатать
Просмотров: 155
*****************************
Jennifer Rostock - Mongoloid
*****************************

-tabbed by "zero83" 
-Standard Tuning 
-You'll find videos to my tabs on www.youtube.com/user/blacksystem83 
-PLEASE RATE AND COMMENT! =)

ACHTUNG! Dies hier sind die Tabs fuer die CD-Version! Live spielt die Band in der Regel 
Toene vom INTRO das ganze Lied hindurch!
Wie oft ihr die jeweiligen Toene spielt, muesst ihr schon selbst rausfinden! =P

0:00 INTRO
G---------------------|
D---------------------|
A------6--------------|
E-8---------6----8----|

0:18
G---------------------|
D---------------------|
A------4--------------|
E-6---------4----6----|

0:36
G---------------------|
D---------------------|
A-4-------------------|
E------4----6---------|

0:43
G---------------------|
D---------------------|
A---------------------|
E-4-------------------|

0:47
G---------------------|
D---------------------|
A------4--------------|
E-6---------4----6----|
Добавлено: 28.03.2012
Другие материалы по этой песне:
  • Аккорды и текст

Страница создана 28.03.2012
http://primanota.ru/jennifer-rostock/mongoloid-chords.htm
Привет, Гость.
Предлагаем пройти революционный курс по гитаре.
Подарок от PrimaNota.Ru, забирай!