PrimaNota.ru - самый крупный в мире бесплатный архив песенных текстов, аккордов, табулатур и нот


Jennifer Rostock - Mach Dich Aus Dem Staub - бас-таба, видео

Регистрация Запомнить меня
Войти через:  Facebook Google Twitter Vk Yandex Mail.ru

Jennifer Rostock - Mach Dich Aus Dem Staub - бас-таба, видео

Печатать
Просмотров: 136
*********************************************
Jennifer Rostock - Mach Dich aus dem Staub
*********************************************

-tabbed by "zero83"
-Standard Tuning
-PLEASE RATE OR COMMENT! =)
-Videos to my tabs at: http://www.youtube.com/user/blacksystem83

INTRO
 ---------------------------------  ----------------------------------|2x
 ---------------------------------  ----------------------------------|
 ---------------------------------  ----------------------------------|
 -----------------4-4-4-4-4-4-----  -44444444444444447777777799999999-|

STROPHE
 ---------------------------------2x---------------------------------|2x
 ---------------------------------  ---------------------------------|
 ---------6-6-6-6-9-9-9-9-4-4-42--  ---------6666666699999999444442--|
 -4-4-4-4-------------------------  -44444444------------------------|

 ---------------------------------|2x
 ---------------------------------|
 -------------------------4~------|
 -4~------4~------2~--------------|

REFRAIN 4x
 ---------------------------------|
 ---------------------------------|
 ---------------------------------|
 -44444444777777772222222299999999

INTRO
 ---------------------------------  ----------------------------------|
 ---------------------------------  ----------------------------------|
 ---------------------------------  ----------------------------------|
 -4---------------4-4-4-4---------  -44444444444444447777777799999999-|

STROPHE

REFRAIN 4x

SOLO
 -----------------   ----------------------------------|4x
 -----------------   ----------------------------------|
 -----------------   -------------------------44444444-|
 -4~-----4--------   -444444444444444422222222---------|

REFRAIN
 ---------------------------------  ----------------------------------|
 ---------------------------------  ----------------------------------|
 ---------------------------------  ----------------------------------|
 ----------------2-222222299999999  -44444444777777772222222299999999-|

 ---------------------------------  ----------------------------------|
 ---------------------------------  ----------------------------------|
 ---------------------------------  ----------------------------------|
 -44--------777---2222222299999999  -44444444777777772222222299999999-|

OUTRO
 ---------------------------------|2x
 ---------------------------------|
 ---------------------------------|
 -44444444444444447777777799999999|
Добавлено: 23.06.2012
Другие материалы по этой песне:
  • Аккорды и текст

Страница создана 23.06.2012
http://primanota.ru/jennifer-rostock/mach-dich-aus-dem-staub-chords.htm
Привет, Гость.
Предлагаем пройти революционный курс по гитаре.
Подарок от PrimaNota.Ru, забирай!