PrimaNota.ru - самый крупный в мире бесплатный архив песенных текстов, аккордов, табулатур и нот


Jennifer Rostock - Luegen Haben Schoene Beine - бас-таба, видео

Регистрация Запомнить меня
Войти через:  Facebook Google Twitter Vk Yandex Mail.ru

Jennifer Rostock - Luegen Haben Schoene Beine - бас-таба, видео

Печатать
Просмотров: 247
*********************************************
Jennifer Rostock - LÜGEN HABEN SCHÖNE BEINE
*********************************************

-tabbed by "zero83"
-Standard Tuning
-PLEASE RATE OR COMMENT! =)
-Videos to my tabs at: http://www.youtube.com/user/blacksystem83

STROPHE
 ------------------------------------------|x2
 ------------------------------------------|
 ------------------------------------------|
 --8------8-8------11------6-6-------------|

 ------------------------------------------|x4
 ------------------------------------------|
 ------------------------------------------|
 --8--------8------11--------6-------------|

REFRAIN
 ------------------------------------------|x2
 ---------------------------------8-8-8-8--|
 ----------------------8-8-8-8-11----------|
 --8-8-8-8-11-11-11-11---------------------|

STROPHE
 ------------------------------------------|x2
 ------------------------------------------|
 ------------------------------------------|
 --8------8-8------11------6-6-------------|

 ------------------------------------------|
 ------------------------------------------|
 ------------------------------------------|
 --8---------------------------------------|

 ------------------------------------------|x2
 ------------------------------------------|
 ------------------------------------------|
 --8--------8------11--------6-------------|

 ------------------------------------------|
 ------------------------------------------|
 ------------------------------------------|
 --8--------8------11----------------------|


REFRAIN x4


BREAK
 -------------------------------------------|
 -------------------------------------------|
 -------------------------------------------|
 ----------------\\11-11-------6-6-6-6------|

OUTRO/REFRAIN
 -------------------------------------------|x2
 -----------------5-5-5-5-8-10-10-10--------|
 -5-5-5-5-8-8-8-8---------------------------|
 -------------------------------------------|

 -------------------------------------------|x2
 -------------------------------------------|
 -----------------0-0-0-0-3-5-5-5-----------|
 -0-0-0-0-3-3-3-3---------------------------|

 -------------------------------------------|x2
 -------------------------------------------|
 -----------------2-2-2-2-5-7-7-7-----------|
 -2-2-2-2-5-5-5-5---------------------------|

 -----------------|
 -----------------|
 -9999---9999-----|
 -----------------|
Добавлено: 06.06.2012
Другие материалы по этой песне:
  • Аккорды и текст

Страница создана 06.06.2012
http://primanota.ru/jennifer-rostock/luegen-haben-schoene-beine-chords.htm
Привет, Гость.
Предлагаем пройти революционный курс по гитаре.
Подарок от PrimaNota.Ru, забирай!