PrimaNota.ru - самый крупный в мире бесплатный архив песенных текстов, аккордов, табулатур и нот


Jennifer Rostock - Leben Auf Zeit - бас-таба, видео

Регистрация Запомнить меня
Войти через:  Facebook Google Twitter Vk Yandex Mail.ru

Jennifer Rostock - Leben Auf Zeit - бас-таба, видео

Печатать
Просмотров: 104
***************************************
Jennifer Rostock - Leben auf Zeit
***************************************

-tabbed by "zero83" 
-Standard Tuning 
-You'll find videos to my tabs on www.youtube.com/user/blacksystem83 
-PLEASE RATE AND COMMENT! =)

 INTRO
|-------------------------|x6  |-----------------------------|
|-------------------------|    |-----------------------------|
|-------------------------|    |-9--9-9-8--8-8---------------|
|-9-6-6-9-6-6-9-6---------|    |-----------------------------|

|-------------------------|x3  |-----------------------------|
|-------------------------|    |-----------------------------|
|-------------------------|    |-9--9-9-8--8-8---------------|
|-9-6-6-9-6-6-9-6---------|    |-----------------------------|

|-------------------------|    
|-------------------------|    
|-------------------------|    
|-9-6-6-9-6-6-9-6---------|    

|-------------------------|    |-----------------------------|
|-------------------------|    |-----------------------------|
|-6--6-6-8--8-8-13--13-13-|    |-6--6-6-8--8-8-13--13-13-11--|
|-------------------------|    |-----------------------------|


 "Leben auf Zeit.."
|-----------------|-------|  
|---------x3------|-------|    
|-----------------|-------|    
|-6-6-6-6-4-4-4-4-|2-2-1-1|
        
|-------------------------|x4  |-----------------------------|
|-------------------------|    |-----------------------------|
|-------------------------|    |-9--9-9-8--8-8---------------|
|-9-6-6-9-6-6-9-6---------|    |-----------------------------|

|-------------------------|x3  |-----------------------------|
|-------------------------|    |-----------------------------|
|-------------------------|    |-9--9-9-8--8-8---------------|
|-9-6-6-9-6-6-9-6---------|    |-----------------------------|

|-------------------------|    
|-------------------------|    
|-------------------------|    
|-9-6-6-9-6-6-9-6---------|    

|-------------------------|    |-----------------------------|
|-------------------------|    |-----------------------------|
|-6--6-6-8--8-8-13--13-13-|    |-6--6-6-8--8-8-13--13-13-11--|
|-------------------------|    |-----------------------------|


 "Leben auf Zeit.." x2


|-------------------------|x8
|-------------------------|    
|-------------------------|    
|-9-6-6-9-6-6-9-6--6--6---| 


 "Leben auf Zeit.." x2   


|-------------------------------|x3
|-------------------------------|
|---------4-4-4-4---------------|
|-6-6-6-6---------4-4-4-4-4-4-4-|

|-----------------|
|-----------------|
|-----------------|
|--7--7--7-7------|

|-------------------------------|
|-------------------------------|
|-------------------------------|
|-9-6-6-9-6-6-9-6-\\\-----------|
Добавлено: 28.04.2012
Другие материалы по этой песне:
  • Аккорды и текст

Страница создана 28.04.2012
http://primanota.ru/jennifer-rostock/leben-auf-zeit-chords.htm
Привет, Гость.
Предлагаем пройти революционный курс по гитаре.
Подарок от PrimaNota.Ru, забирай!