PrimaNota.ru - самый крупный в мире бесплатный архив песенных текстов, аккордов, табулатур и нот


Jennifer Rostock - Jung Und Schn - бас-таба, видео

Регистрация Запомнить меня
Войти через:  Facebook Google Twitter Vk Yandex Mail.ru

Jennifer Rostock - Jung Und Schn - бас-таба, видео

Печатать
Просмотров: 130
Уроки эстрадного вокала в Санкт-Петербурге
***************************************
Jennifer Rostock - Jung und schoen
***************************************

-tabbed by "zero83" 
-Standard Tuning 
-You'll find videos to my tabs on www.youtube.com/user/blacksystem83 
-PLEASE RATE AND COMMENT! =)
-Wie oft ihr die jeweiligen Toene im PRE CHORUS und REFRAIN spielt, 
muesst ihr selbst rausfinden oder einfach nach Gefuehl spielen! =)

INTRO
|------------------------------------------------------|
|------------------------------------------------------|
|-3~--3-5-3-6-5-3-3~--3-5-3-6-5-3-3~--3-5-3-6-5-3-3----|
|------------------------------------------------------|

0:06 VERSE 2x
|---------------------------------------|---------------------------------------|
|-----3-------3-------3-------3---------|---------------------------------------|
|---------------------------------------|-3~--3-5-3-6-5-3-3~--3-5-3-6-5-3-3~----|
|-1-------1-------1-------1-------------|---------------------------------------|

0:19 PRE CHORUS
|---------------------------------------|---------------------------------------|
|---------------------------------------|---------------------------------------|
|-1----------------------3--------------|-1-------------------------------------|
|-------------1-------------------------|-------------3-------------------------|

|---------------------------------------|---------------------------------------|
|---------------------------------------|---------------------------------------|
|-1----------------------3--------------|-1-------------------------------------|
|-------------1-------------------------|-------------3-----------1-1-1-1-1-----|

0:33 "Wie ein Chamäleon..."
|---------------------------------------|---------------------------------------|
|---------------------------------------|---------------------------------------|
|-8-----------6-------------------------|-8-----------6-----------------3-------|
|-------------------------6------6------|------------------------6--------------|

|---------------------------------------|
|---------------------------------------|
|---------------------------------------|
|-1----1----1----1----1-----------------|

0:49 VERSE 2x

1:01 PRE CHORUS

1:15 "Wie ein Chamäleon..."

1:42 PAUSE

1:56 "Wie ein Chamäleon..."
|---------------------------------------|---------------------------------------|
|---------------------------------------|---------------------------------------|
|-8-----------6-------------------------|-8-----------6-----------------3-------|
|-------------------------6------6------|------------------------6--------------|

|---------------------------------------|---------------------------------------|
|---------------------------------------|---------------------------------------|
|-8\\\-------------6--------------------|-8-----------6--------------33333333333|
|-------------------------6------6------|------------------------6--------------|

|---------------------------------------|---------------------------------------|
|---------------------------------------|---------------------------------------|
|-8-----------6-------------------------|-8-----------6-----------------3-------|
|-------------------------6------6------|------------------------6--------------|

|---------------------------------------|
|---------------------------------------|
|--------------------------------8\\\---|
|-1~------------------------------------|
Добавлено: 24.03.2012
Другие материалы по этой песне:
  • Аккорды и текст

Страница создана 24.03.2012
http://primanota.ru/jennifer-rostock/jung-und-schn-chords.htm
Привет, Гость.
Предлагаем пройти революционный курс по гитаре.
Подарок от PrimaNota.Ru, забирай!