PrimaNota.ru - самый крупный в мире бесплатный архив песенных текстов, аккордов, табулатур и нот


Jennifer Rostock - Gedanken Die Man Besser Nicht Denkt - бас-таба, видео

Регистрация Запомнить меня
Войти через:  Facebook Google Twitter Vk Yandex Mail.ru

Jennifer Rostock - Gedanken Die Man Besser Nicht Denkt - бас-таба, видео

Печатать
Просмотров: 133
Авторы музыки: Jennifer Weist, Johannes Walter-Müller
Авторы текста: Jennifer Weist, Johannes Walter-Müller
***********************************************************
Jennifer Rostock - Gedanken, die man besser nicht denkt
***********************************************************

-tabbed by "zero83" 
-Standard Tuning 
-You'll find videos to my tabs on www.youtube.com/user/blacksystem83 
-PLEASE RATE AND COMMENT! =)

-INTRO:
|---------------------------------|------------------------------------|
|---------------------------------|------------------------------------|    
|-1--3-----6--5---1--3--6--5------|--1--3-------6--5---1--3---1--3-----|   
|-------3--------------------6\1--|--------1/3-----------------------3-| 
 
-REFRAIN 1:                     x2                                   
|---------------------------------|---------------------------------|
|---------------------------------|---------------------------------|
|---------5-5-5-5---------3-3-3-3-|-----------------5~--------------|
|-0-0-0-0---------5-5-5-5---------|-0-0-0-0-3-3-3-3-----------------|
                                x2 
|---------------------------------|---------------------------------| 
|---------------------------------|---------------------------------|  
|-1-1-1-1-3-3-3-3-----------------|----------1---------3------------| 
|-----------------3~--------------|---------------------------------| 

-STROPHE:
|---------------------------------|---------------------------------| 
|---------------------------------|---------------------------------| 
|-----------------6-6-6-5-5-5-5-5-|1-1-1-3-3-3-3-3--6-6-6-5-5-5-5-5-|
|-3-3-3-3-3-3-3-3-----------------|---------------------------------|

|---------------------------------|---------------------------------|
|---------------------------------|---------------------------------| 
|-----------------1-1-1-3-3-3-3-3-|-----------------6-6-6-5-5-5-5-5-|
|-1-1-1-1-1-1-1-1-----------------|-3-3-3-3-3-3-3-3-----------------| 

|---------------------------------|---------------------------------|
|---------------------------------|---------------------------------|
|-1-1-1-3-3-3-3-3-1-1-1-3-3-3-3-3-|---------------------------------|
|---------------------------------|3-3-3-3-3-3-3-33-----------------|

-REFRAIN 2:                     x2
|---------------------------------|---------------------------------| 
|---------------------------------|---------------------------------| 
|---------5-5-5-5---------3-3-3-3-|-----------------5-5-5-5-5-5-5-5-| 
|-0-0-0-0---------5-5-5-5---------|-0-0-0-0-3-3-3-3-----------------| 

                                x2                                x2
|---------------------------------|---------------------------------|
|---------------------------------|---------------------------------|
|-1-1-1-1-3-3-3-3-----------------|-6-6-6-6-8-8-8-8-1010101010101010|
|-----------------3-3-3-3-3-3-3-3-|---------------------------------|

-"Es ist kalt...":
|---------------------------------|---------------------------------|
|---------------------------------|---------------------------------|
|-6-6-6-6-5-5-5-5-----------------|-1--3-----------1--3-------------|
|-----------------1-1-1-1-1-1-1-1-|-------3--------------3----------|

|---------------------------------|---------------------------------| 
|---------------------------------|---------------------------------| 
|-1--3-----------1--3-------------|-1-1-1-1-3-3-3-3-5-5-5-5-5-5-----| 
|-------3--------------3----------|-----------------------------33--| 

-REFRAIN 2

-END:
|---------------------------------|---------------------------------| 
|---------------------------------|---------------------------------| 
|-1--3-----------1--3-------------|-1--3----------------------------|
|-------3--------------3----------|-------3-------------------------|

PLEASE RATE !!! =)
Добавлено: 18.04.2012
Другие материалы по этой песне:
  • Аккорды и текст

Страница создана 18.04.2012
http://primanota.ru/jennifer-rostock/gedanken-die-man-besser-nicht-denkt-chords.htm
Привет, Гость.
Предлагаем пройти революционный курс по гитаре.
Подарок от PrimaNota.Ru, забирай!