PrimaNota.ru - самый крупный в мире бесплатный архив песенных текстов, аккордов, табулатур и нот


Jennifer Rostock - Fuchsteufelswild - таба, бас-таба, видео

Регистрация Запомнить меня
Войти через:  Facebook Google Twitter Vk Yandex Mail.ru

Jennifer Rostock - Fuchsteufelswild - таба, бас-таба, видео

Печатать
Просмотров: 199
Новый альбом группы 'Черный Кузнец' по культовому сериалу 'Сверхъестественное'!
[Intro & Verse]

e|-------------------------------------------------------|
B|-------------------------------------------------------|
G|-7-5-7-5-3-----------5-6-------------------------------|
D|-x-x-x-x-x-5---------5-6-------------------------------|
A|-5-3-5-3-1-x---------3-4-------------------------------|
E|-----------3-------------------------------------------|

[Chorus]

e|-------------------------------------------------------|
B|-------------------------------------------------------|
G|-7-3---------------------------------------------------|
D|-7-3---------------------------------------------------|
A|-5-1---------------------------------------------------|
E|-------------------------------------------------------|

[Verse]

e|-------------------------------------------------------|
B|-------------------------------------------------------|
G|-7-5-7-5-3---------------------------------------------|
D|-x-x-x-x-x-5-------------------------------------------|
A|-5-3-5-3-1-x-------------------------------------------|
E|-----------3-------------------------------------------|

[Bridge]

e|-------------------------------------------------------|
B|-------------------------------------------------------|
G|-5---5---6---------------------------------------------|
D|-x---x---x---------------------------------------------|
A|-3---3---4---------------------------------------------|
E|-------------------------------------------------------|
Добавлено: 13.02.2018
Другие материалы по этой песне:
  • Аккорды и текст

Страница создана 12.07.2012
http://primanota.ru/jennifer-rostock/fuchsteufelswild-chords.htm
Привет, Гость.
Предлагаем пройти революционный курс по гитаре.
Подарок от PrimaNota.Ru, забирай!