PrimaNota.ru - самый крупный в мире бесплатный архив песенных текстов, аккордов, табулатур и нот


Jennifer Rostock - Fuchsteufelswild - бас-таба, видео

Регистрация Запомнить меня
Войти через:  Facebook Google Twitter Vk Yandex Mail.ru

Jennifer Rostock - Fuchsteufelswild - бас-таба, видео

Печатать
Просмотров: 141
***************************************
Jennifer Rostock - Fuchsteufelswild
***************************************

-tabbed by "zero83" 
-Standard Tuning 
-You'll find videos to my tabs on www.youtube.com/user/blacksystem83 
-PLEASE RATE AND COMMENT! =)

0:07
 ----------------------------------|
 --------------------------75-75---|
 ----------------------------8--85-|
 -6--------3-----------------------|

0:12 STROPHE
 ------------------------------------------------------------------|
 --------------75--------------75--------------------------75-75---|
 -5555555555555--85555555555555--8---------------------------8--85-|
 ---------------------------------6666666666666666333333333--------|

 ------------------------------------------------------------------|
 --------------75--------------75--------------------------75-75---|
 -5555555555555--85555555555555--8---------------------------8--85-|
 ---------------------------------6666666666666666333333333--------|

 ----------------|
 ----------------|
 -333333334~-----|
 ----------------|

0:35 REFRAIN
 ---------------------------------|x2
 ---------------------------------|
 -5-5-5-5---------5-5-5-5---------|
 ---------6-6-6-6---------6-6-6-6-|

0:46 STROPHE
 ------------------------------------------------------------------|
 --------------75--------------75--------------------------75-75---|
 -5555555555555--85555555555555--8---------------------------8--85-|
 ---------------------------------66666666666666663----------------|

 ------------------------------------------------------------------|
 --------------75--------------75--------------------------75-75---|
 -5555555555555--85555555555555--8---------------------------8--85-|
 ---------------------------------6666666666666666333333333--------|

 ---------------------------------|
 ---------------------------------|
 -3-3-3-3-4-----------------------|
 ---------------------------------|

1:09 REFRAIN
 ---------------------------------|x2
 ---------------------------------|
 -5-5-5-5---------5-5-5-5---------|
 ---------6-6-6-6---------6-6-6-6-|

1:19
 ---------------------------------|
 ---------------------------------|
 -3---------------3-3-----------4-|
 ---------------------------------|

1:24 REFRAIN
 ---------------------------------|x2
 ---------------------------------|
 -5-5-5-5---------5-5-5-5---------|
 ---------6-6-6-6---------6-6-6-6-|

 ---------------------------------|x2
 ---------------------------------|
 -5555555---------5555555---------|
 --------66666666--------66666666-|

 ---------------------------------|
 ---------------------------------|
 -5-------------------------------|
 ---------------------------------|
Добавлено: 12.07.2012
Другие материалы по этой песне:
  • Аккорды и текст

Страница создана 12.07.2012
http://primanota.ru/jennifer-rostock/fuchsteufelswild-chords.htm
Привет, Гость.
Предлагаем пройти революционный курс по гитаре.
Подарок от PrimaNota.Ru, забирай!