PrimaNota.ru - самый крупный в мире бесплатный архив песенных текстов, аккордов, табулатур и нот


Jennifer Rostock - Es War Nicht Alles Schlecht - бас-таба, драм-таба, видео

Регистрация Запомнить меня
Войти через:  Facebook Google Twitter Vk Yandex Mail.ru

Jennifer Rostock - Es War Nicht Alles Schlecht - бас-таба, драм-таба, видео

Печатать
Просмотров: 143
****************************************************
Jennifer Rostock - ES WAR NICHT ALLES SCHLECHT
****************************************************

-tabbed by "zero83" 
-Standard Tuning 
-You'll find videos to my tabs on www.youtube.com/user/blacksystem83 
-PLEASE RATE AND COMMENT! =)
-Note: In the second part of the CHORUS you have to hit each note several times. 
Just get the feeling! ;)

0:00 INTRO
 --------------------------------- ----------------------------------|
 --------------------------------- ----------------------------------|
 --------------------------------- ----------------------------------|
 -0000000000000000333333333333333- -55555555555555778888888888887755-|

0:13 VERSE
 --------------------------------- ----------------------------------|x2
 --------------------------------- ----------------------------------|
 --------------------------------- --------------------------2-------|
 ---0---0---0---0---0---0-3-5---7- ----0---0---0---0---0---0---3---5-|

0:26
 --------------------------------- ----------------------------------|
 -----5-------5-------5-------5--- -----5-------5-------5-------5----|
 -3-------3-------3-------3------- -3-------3-------3-------3--------|
 --------------------------------- ----------------------------------|

0:33
 ------------------------------------------------------|
 ----------------9-----9-----12-----12-----10------10--|
 ----7-----7-------------------------------------------|
 -0-----0-----7-----7-----10----10------8------8-------|

 ------------------------------------------------------|
 ----------------9-----9-----12-----12-----------------|
 ----7-----7-------------------------------------------|
 -0-----0-----7-----7-----10----10------8-\\-----------|

0:46 CHORUS
 ------------------------------x2- ------------------------------x1-|
 --------------------------------- ---------------------------------|
 -----------------5555555533333333 -12---10------------12-----14-15-|
 -0000000033333333---------------- ----------12---10----------------|


1:12 VERSE

1:52 CHORUS

2:18 INTRO x3

3:11 CHORUS

3:36 ENDE
 ----------------------------------|x3
 ----------------------------------|
 -----------------5555555533333333-|
 -0000000033333333-----------------|

 ---------------------------------|x1
 ---------------------------------|
 -----------------555555553~------|
 -0000000033333333----------------|

 ---------------------------------|
 ---------------------------------|
 ---------------------------------|
 -0~------------------------------|
Добавлено: 02.06.2012
Другие материалы по этой песне:
  • Аккорды и текст

Страница создана 20.04.2012
http://primanota.ru/jennifer-rostock/es-war-nicht-alles-schlecht-chords.htm
Привет, Гость.
Предлагаем пройти революционный курс по гитаре.
Подарок от PrimaNota.Ru, забирай!