PrimaNota.ru - самый крупный в мире бесплатный архив песенных текстов, аккордов, табулатур и нот


Jennifer Rostock - Blut Geleckt - бас-таба, видео

Регистрация Запомнить меня
Войти через:  Facebook Google Twitter Vk Yandex Mail.ru

Jennifer Rostock - Blut Geleckt - бас-таба, видео

Печатать
Просмотров: 157
Авторы музыки: Jennifer Weist, Johannes Walter-Müller
Авторы текста: Jennifer Weist, Johannes Walter-Müller
************************************
Jennifer Rostock - BLUT GELECKT
************************************

-tabbed by "zero83" 
-Standard Tuning 
-You'll find videos to my tabs on www.youtube.com/user/blacksystem83 
-PLEASE RATE AND COMMENT! =)

-VERSE 1:
G-------------------------------|-------------------------------|
D-------------------------------|-------------------------------|
D-------------------------------|-3-----6-----8-----11----------|
E-------------------------------|-------------------------------|

G-------------------------------|-------------------------------|
D-------------------------------|-------------------------------|
A-3-----6-----------------------|----------------------------6--|
E-------------6-----------------|-44-4444444-4444444-444444-4---|

-REFRAIN: 4x
G-------------------------------| 
D-------------------------------|
A-3-3--3-6-6--6-11-11--11-8-8---|
E-------------------------------|

-VERSE 2:
G-------------------------------|-------------------------------|
D--------------------18-18-18---|--------------------18-18-18---|
A-3//---18//---8//--------------|-3//---18//---8//--------------|
E-------------------------------|-------------------------------|

G-------------------------------|-------------------------------|
D-------------------------------|--------------------18-18-18---|
A-3//---18----------------------|-3//--18//---8//---------------|
E-------------6-----------------|-------------------------------|

G-------------------------------|-------------------------------|
D-------------------------------|-------------------------------|
A-3//---18----------------------|----------------------------6--|
E-------------6-----------------|-44-4444444-4444444-444444-4---|

-REFRAIN 8x

-SHORT PAUSE

-BREAK: 4x
G-------------------------------|---these are elevenths!--------|
D-------------------------------|--|----------------------------|
A3-3--3-6-6--6-8-8-11-11-8-8-6-6|1111--1111111111-8-8--8-8-8-8-8|
E-------------------------------|-------------------------------|

-SHORT PAUSE

-REFRAIN 8x

-ENDE:
G-------------------------------|
D-------------------------------|
A-3----------3------------------|
E-------------------------------|

HAVE FUN! =)
Добавлено: 29.06.2012
Другие материалы по этой песне:
  • Аккорды и текст

Страница создана 29.06.2012
http://primanota.ru/jennifer-rostock/blut-geleckt-chords.htm
Привет, Гость.
Предлагаем пройти революционный курс по гитаре.
Подарок от PrimaNota.Ru, забирай!