PrimaNota.ru - самый крупный в мире бесплатный архив песенных текстов, аккордов, табулатур и нот


Jennifer Pena - Prefiero Irme Enamorada - аккорды и текст, видео

Регистрация Запомнить меня
Войти через:  Facebook Google Twitter Vk Yandex Mail.ru

Jennifer Pena - Prefiero Irme Enamorada - аккорды и текст, видео

Печатать
Просмотров: 84
Уроки эстрадного вокала в Санкт-Петербурге
Prefiero Irme Enamorada
Jennifer Pena
e|-3-4-4/6-6-6-4/6---2/4---1/3----1-3-4-1/3-----
B|-----------------6-----4-----4------------6/4-
G|----------------------------------------------
D|----------------------------------------------
A|----------------------------------------------
E|----------------------------------------------

e|--------------------------
B|-----6-6/8---4-3----------
G|-5-4-------------5-3-3/5--
D|--------------------------
A|--------------------------
E|--------------------------

G#         A#           Gm        Cm
Aunque me duela no me queda otra opción
G#       A#            Gm         Cm
Me rindo ya me voy no pidas mas perdón
G#         A#           Gm         G#
Seguir contigo ha de ser mi destrucción
C#9
Que me quieres ya lo se
     A#
Pero ya no es como ayer

    G#                 A#                  Cm
Tu celos me tienen enferma y no me dejan vivir
      G#                 A#                  D#
Por amores como el tuyo cualquiera se puede morir
        G7          G#
Ya lo nuestro no es real
            A#sus4   A#
Terminemos con un buen final

CORO:
    D#         A#   Cm
Necesito irme sin rencor
        G#          Fm           A#
Porque aun te amo marcharme sin dolor
         D#         G7                  G#     G#m
Y me decirle al corazon que fuiste un sueño mi amor
          D#         Cm   G#        A#     D#
Prefiero irme enamorada antes que sea un error

G#         A#           Gm        Cm
Aunque no quieres debes de tener valor
  C#9                      A#sus4      A#
Para decirme adios te lo ruego por los dos

    G#                 A#                  Cm
Tu celos me tienen enferma y no me dejan vivir
      G#                 A#                  D#
Por amores como el tuyo cualquiera se puede morir
        G7          G#
Ya lo nuestro no es real
            A#sus4   A#
Terminemos con un buen final

CORO

     Cm  G7 D# F Fm D# G# A#
Un error

CORO

(Guitarra electrica)

e|-8-10-11-10-13-10----------------------------------8-6-
B|-------------------8-11-11-11-9-8-8/6----6---6-8-9-----
G|---------------------------------------5---5-----------
D|-------------------------------------------------------
A|-------------------------------------------------------
E|-------------------------------------------------------

e|----------8-10-11---11/15/13-
B|---8-9-11--------------------
G|-8---------------------------
D|-----------------------------
A|-----------------------------
E|-----------------------------

CORO

A#sus4=113343

G#   D#
Un error
Добавлено: 26.02.2016
Другие материалы по этой песне:
  • Аккорды и текст

Страница создана 26.02.2016
http://primanota.ru/jennifer-pena/prefiero-irme-enamorada-chords.htm
Привет, Гость.
Предлагаем пройти революционный курс по гитаре.
Подарок от PrimaNota.Ru, забирай!