PrimaNota.ru - самый крупный в мире бесплатный архив песенных текстов, аккордов, табулатур и нот


Jem - Come On Closer - текст песни, таба, бас-таба, видео

Регистрация Запомнить меня
Войти через:  Facebook Google Twitter Vk Yandex Mail.ru

Jem - Come On Closer - текст песни, таба, бас-таба, видео

Печатать
Просмотров: 309
Авторы: GE-OLOGY, Jemma Griffiths

this song is in standerd tuning and played in distortion even though there really isnt
that much guitar in the song i still think its really cool and dont go to hard on me
cause im only a 14 year old girl. key is at bottom of page . this has a differnt stoke
pattern so if u listen to the song while you play it helps a lot i have written the
pattern down so i hope that helps to .

-----------------------------------------------------------------------|
-----------------------------------------------------------------------|
-8---------------8-----------6----------6-----------8-----------8------|
-8--x4 d,u,d,d---8--x2 d,u --6--x2 d,d -6--x2 d,u --8--x2 d,d---8-x----|3 d,u,d
-6---------------6-----------4----------4-----------6-----------6------|
-----------------------------------------------------------------------|

-----------------------------------------------------------------|
-----------------------------------------------------------------|
---6--4--3-6-6----6---------6----------6----------6--------------|
---6--4--3-6-6----6-x2-d,u -6---x2-d,d-6-x2 d,u---6-x2-d,d-------|
---4--2--1-4-4----4---------8----------8----------4--------------|
-----------------------------------------------------------------|
okay and from there on thats the whole song . you just keep playing those power chords 
it should be in that pattern until the song ends so u should be able to figure it out.

the part where the guitar cuts in and out is just the --6--
                                                      --6--
                                                      --4--
key -- d= down stroke
------ u= up stroke     both for the chord that was previously played.

if u have any questions or comments you can email me at Acdc9790@aol.com
please rate
Добавлено: 28.02.2012
Другие материалы по этой песне:

Страница создана 28.02.2012
http://primanota.ru/jem/come-on-closer-chords.htm
Привет, Гость.
Предлагаем пройти революционный курс по гитаре.
Подарок от PrimaNota.Ru, забирай!