PrimaNota.ru - самый крупный в мире бесплатный архив песенных текстов, аккордов, табулатур и нот


Jellyfish - She Still Loves Him - текст песни, таба, видео

Регистрация Запомнить меня
Войти через:  Facebook Google Twitter Vk Yandex Mail.ru

Jellyfish - She Still Loves Him - текст песни, таба, видео

Печатать
Просмотров: 177
She Still Loves Him - Jellyfish
written by Andy Sturmer/Roger Manning
transcribed by Robb Anagnostis

(intro loungey piano - then guitar, bass and vocals below)


Guitar: B        Bsus4     Aadd9       F#7 (strum 4x)
E--------------------(0)--(0)----------2------
B------(4)------(5)or(0)---0-----------2------
G-------4--------4----4----2-----------3-/-/-/
D-------4--------4----4----2-----------2------
A--------------------------------------4------
E---------------------------------------------

Bass:
A---2-2----2----------------------------------
E------------4-4-----4-3-3-------3-2-2-----2--

He writes her a letter tells her he won't be home soon
She still loves him
He lost his temper and belted his love 'cross the room
She still loves him
Drinks when he's sad gets happy then mad at the world
She still loves him
Never remembers that day in September when wed
She still loves him

.......Gadd9.......F#7...........Em.........Bm........
E---------------0-----------0-----------0------------
B------------3-----------2------------0--------3-2-3-
G---------4-----------3-------------0--------4-------
D------5-----------4--------------2------------------
A----------------------------------------------------
E----------------------------------------------------
She recalls the days     when    they were younger

Gadd9..........Eb7/F#..........Bm..........A6....
E----------0-----3-----------------2-----------2-------
B-------3-----------2-----------------3-----------2----
G----4---------3-------3--------4--------4--2--------2-
D-5----------------------------------------------------
A------------------------------------------------------
E------------------------------------------------------
Flowers could heal her wounds

..........G6...........Eb7/Bb.....Bm........A6....
E---------------3--------3------------2------2---------
B------------5--------------2-------3---3------2-------
G-------------------4--3-------3--4--------2-----2----
D---------5--------------------------------------------
A------------------------------------------------------
E------------------------------------------------------
Now those days are long since     gone forever


G--3--4--4--
E--2--4--6--
E.......E...........................F#..
Now her pain just fills every room

2nd verse chords same as first:
Faces aglow as the light from the TV show just separates them now
She still loves him
All they wanted to be was as happy as couple number three on their favorite game show
She still loves him

2nd chorus same as first:
He recalls the days when they were younger
Future could heal their wounds (future could heal their wounds)
But now those days are long since gone forever
Now her pain just fills every room

Bass:
A-7--7--5--5--4--4--------------------4--4--7--7-
E-------------------7--7--5--5--7--7-------------
Em.........................A...................
I know some day this will all work out

Bass:
D-------------------------------------------5--4-
A-5--5--3--3--2--2--------------2--2--5--5-------
E-------------------5--5--3--3-------------------
D..............................G..
She'll never face this alone

Bass:
A-7--7--5--5--4--4--------------------4--4--7--7-
E-------------------7--7--5--5--7--7-------------
Em..............................A..................
The light in her eyes may be flickering dim

Bass:
D--------------5-----4-----------------------------
A-----------4-------------------------------------
E-----6------------------------------------------
.....F#/Bb*...............Bm
But she       still loves him

G--6--7--9--  (tab for E and G string on guitar,
E--5--7--9--   to cover plucked violin part)
F#............G.....A
Still loves him

(guitar solo)

3rd chorus same as first:
He recalls the days when they were younger
Future could heal their wounds (future could heal their wounds)
But now those days are long since gone forever
Now her pain just fills every room

Final Chord:
E------------------2----
B------------------2----
G------------4-----4----
D------------4-----4----
A-----2--2--------------
E---------------0-------
Добавлено: 29.04.2012
Другие материалы по этой песне:
  • Аккорды и текст

Страница создана 29.04.2012
http://primanota.ru/jellyfish/she-still-loves-him-chords.htm
Привет, Гость.
Предлагаем пройти революционный курс по гитаре.
Подарок от PrimaNota.Ru, забирай!