PrimaNota.ru - самый крупный в мире бесплатный архив песенных текстов, аккордов, табулатур и нот


Jello Biafra And The Guantanamo School Of Medicine - New Feudalism - таба, видео

Регистрация Запомнить меня
Войти через:  Facebook Google Twitter Vk Yandex Mail.ru

Jello Biafra And The Guantanamo School Of Medicine - New Feudalism - таба, видео

Печатать
Просмотров: 136
-------------------------------------------------------------------------------
Jello Biafra and the Guantanamo School of Medicine
New Feudalism
-------------------------------------------------------------------------------


Transcribed By Shaun Amos

^ = Palm Mute
> = As many notes as it takes!
/ = Slide
* = Play a powerchord with the note below as the root
(the reason I've done this is so the spacing works out properly)

NOTE: Listen for proper strumming/number of notes
Note: The Lead GUitar Part for the Solo has NOT BEEN Transcribed
      I may get around to it later and, if so, I'll repost


Intro 4x
e|----------------------------------|
B|----------------------------------|
G|----------------------------------|
D|----------------------------------|
A|-4---7---9--10---4---10--9--7-----|
E|-2---5---7--8----2---8---7--5-----|


Verse
Part 1 - 2x
e|----------------------------------|----------------------------------|
B|----------------------------------|----------------------------------|
G|----------------------------------|----------------------------------|
D|--^------------^------------------|--^-------------------------------|
A|-4>--7--9-----4>---7--2-----------|-4>-----7--9------4---10--9--7----|
E|-2>--5--7-----2>---5--0-----------|-2>-----5--7------2---8---7--5----|

Part 2 - 2x
e|---------------------------------------|
B|---------------------------------------|
G|----------------------11-9-------------|
D|-11>/14-10>/14-0>-----9--7---7---7-7---|
A|-----------------------------5-9-5-5-9-|
E|-------------------------------7-----7-|

[Intro] 2x

[Verse]

Chorus
e|--------------------------------------------------|
B|--------------------------------------------------|
G|--------------------------------------------------|
D|-----------7-79-97--------------------------------|
A|-98---87---5-57-75-9----98---87---6-67-78-9-------|
E|-76---65-----------7~---76---65---4-45-56-7-------|
             v^v^v^v^v...           v^v^v^v^v...

e|------------------------|---------3X--------|---------|
B|------------------------|-------------------|---------|
G|------------------------|-------------9-999-|---------|
D|-----------9-9*-*9------|--*-*-*-*-*-*7-777-|-*-*---7-|
A|-**---**---7-79-97-*----|--8-9-8-9-7-9------|-9-9-9-5-|
E|-98---87-----------9~---|-------------------|-----7---|
             v^v^v^v^v...    v^v^v^v^v^v^v^v^
                             1+2+3+4+5+6+7+8+ 

Solo - Rhythm - Intro 4x

Solo - Lead??

Bridge
e|----------------------------------------|-----------------------------------|
B|----------------------------------------|-----------------------------------|
G|----------------------------------------|-----------------------------------|
D|--------------7~-----------------7~-----|-----------------------------------|
A|-9-9-9-9h10p9--------8-8-8-8h9p8--------|-7-7-7-7-7-9-7~---5-----5-5--------|
E|----------------------------------------|---------------------7--------7~---|
   1 2 3 4 +  5 6(7 8) 1 2 3 4 + 5 6(7 8)   1 2 3 4 1 2 3 4  1 2 3 4 1 2 3 4
                                                             v^v^v^v^v^v^v^v

e|----------------------------------------|-----------------------------------|
B|----------------------------------------|-----------------------------------|
G|----------------------------------------|-----------------------------------|
D|--------------7~-----------------7~-----|-----------------------------------|
A|-9-9-9-9h10p9--------8-8-8-8h9p8--------|-7-7-7-7-7-9-7~---9---9---9--------|
E|----------------------------------------|------------------7---7---7--------|
   1 2 3 4 +  5 6(7 8) 1 2 3 4 + 5 6(7 8)   1 2 3 4 1 2 3 4  1 2 3 4 1 2 3 4

[Chorus]

[Intro] 6x then end on Gb
Добавлено: 03.05.2012
Другие материалы по этой песне:
  • Аккорды и текст

Страница создана 03.05.2012
http://primanota.ru/jello-biafra-and-the-guantanamo-school-of-medicine/new-feudalism-chords.htm
Привет, Гость.
Предлагаем пройти революционный курс по гитаре.
Подарок от PrimaNota.Ru, забирай!