PrimaNota.ru - самый крупный в мире бесплатный архив песенных текстов, аккордов, табулатур и нот


Jello Biafra And The Guantanamo School Of Medicine - Clean As A Thistle - таба, видео

Регистрация Запомнить меня
Войти через:  Facebook Google Twitter Vk Yandex Mail.ru

Jello Biafra And The Guantanamo School Of Medicine - Clean As A Thistle - таба, видео

Печатать
Просмотров: 55
----------------------------------------------------------------------------------------------------
             Clean As A Thistle - Jello Biafra And The Guantanamo School Of Medicine
----------------------------------------------------------------------------------------------------
Tabbed by: Jacque C
E-mail: imbatman1312@gmail.com

Tuning: Standard (E-A-D-G-B-e)

Intro

e|------------------------------|
B|------------------------------|
G|------------------------------| x2
D|------------------------------|
A|----------------------3b-3b---|
E|-2-4-5--2-4-5--2-4-5----------|

Just Make Noise For 4 Bars by sliding up and down the G and B strings with high gain on.

Verse

e|------------------------------|
B|------------------------------|
G|------------------------------| x4
D|------------------------------|
A|----------------------3b-3b---|
E|-2-4-5--2-4-5--2-4-5----------|


e|--------------------|
B|--------------------|
G|--------------------| x4
D|--------------5-5---|
A|-444444444444-3-3---|
E|-222222222222-------|

Chorus

e|----------------------|
B|----------------------|
G|----------------------| x4
D|-444444444444-7-------|
A|-222222222222-5-7-----|
E|----------------5-----|

e|----------------------------------------|
B|----------------------------------------|
G|----------------------------------------|
D|-44444444444444444444444444444444-------|
A|-44444444444444444444444444444444-------|
E|-22222222222222222222222222222222-0-0---|

e|----------------------------------------|
B|----------------------------------------|
G|----------------------------------------|
D|-44444444444444444444444444444444-------|
A|-44444444444444444444444444444444-12\0--|
E|-22222222222222222222222222222222-------|

End of Second Chorus

e|-------------------------------------------|
B|-------------------------------------------|
G|-------------------------------------------| x2
D|-------------------------------------------|
A|-------------------------------------------|
E|-555555557777-0--2-4-5--2-4-5--2-4-5--2-4--|

e|--------------------------------|
B|--------------------------------|
G|--------------------------------| x2
D|--------------------------------|
A|--------------------------------|
E|-555555557777-0-555555557777-0--|

Bridge

e|------------------------------------|
B|------------------------------------|
G|-11----9----11--------6-------------|
D|-----------------7---------7----4---|
A|-9-----7----9---------4-------------|
E|-----------------5---------5----2---|

"GO!"

e|-----------------------------|
B|-----------------------------|
G|-----------------------------| x2
D|----------------------4--4---|
A|-4-6-6--4-6-6--4-6-6--2--2---|
E|-2/4-4--2/4-4--2/4-4---------|

e|-----------------------------|
B|-----------------------------|
G|-----------------------------| x2
D|----------------------2--2---|
A|-4-4-4--4-4-4--4-4-4--0--0---|
E|-0h2-2--0h2-2--0h2-2---------|

Solo

e|---------------------------------------------------------------------|
B|---------------------------------------------------------------------|
G|------------------13-12-11-------------------13-12-11--15-14-13------|
D|----7----9-8-7-----------------7----9-8-7----------------------------|
A|-11---11-------11-----------11---11-------11-------------------------|
E|---------------------------------------------------------------------|

e|----------------------------------------------------------------------------------|
B|----------------------------------------------------------------------------------|
G|----14-13-12----14-13-12----14-13-12----------------------------------------------|
D|-16----------16----------16----------15-15-16-15-16-17-16/17-18-19-19-19-19b-19b--|
A|----------------------------------------------------------------------------------|
E|----------------------------------------------------------------------------------|

Bridge 2

e|-----------------------------|
B|-----------------------------|
G|-----------------------------| x2
D|----------------------4--4---|
A|-4-6-6--4-6-6--4-6-6--2--2---|
E|-2/4-4--2/4-4--2/4-4---------|

e|-----------------------------|
B|-----------------------------|
G|-----------------------------| x2
D|----------2--2---------------|
A|-4--------0--0---------------|
E|-2---------------------------|

e|-----------------------------|
B|-----------------------------|
G|-----------------------------| x2
D|----------------------4--4---|
A|-4-6-6--4-6-6--4-6-6--2--2---|
E|-2/4-4--2/4-4--2/4-4---------|

e|-----------------------------|
B|-----------------------------|
G|-----------------------------| x2
D|----------2--2---------------|
A|-4--------0--0---------------|
E|-2---------------------------|

e|-----------------------------|
B|-----------------------------|
G|-----------------------------| x2
D|----------------------4--4---|
A|-4-6-6--4-6-6--4-6-6--2--2---|
E|-2/4-4--2/4-4--2/4-4---------|

e|-----------------------------|
B|-----------------------------|
G|-----------------------------| x2
D|----------2--2---------------|
A|-4--------0--0---------------|
E|-2---------------------------|

"Okay, Okay, Okay"

e|-----------------------------------------------------------------------------------------------------|
B|-----------------------------------------------------------------------------------------------------|
G|-13-13-13-13--12-12-12-12--11-11-11-11-10-10-10-10-11-11-11-11-12-12-12-12--13-13-13-13--14-14-14-14-| 
D|-----------------------------------------------------------------------------------------------------|
A|-11-11-11-11--10-10-10-10--9--9--9--9--8--8--8--8--9--9--9--9--10-10-10-10--11-11-11-11--12-12-12-12-|
E|-----------------------------------------------------------------------------------------------------|

e|------------------------------------------------------------------------------------------|
B|------------------------------------------------------------------------------------------|
G|-15-15-15-15--16-16-16-16--17-17-17-17--18-18-18-18---------------------------------------| 
D|-----------------------------------------------------15-16-16-16-16--15-16-16-16-16--16---|
A|-13-13-13-13--14-14-14-14--15-15-15-15--16-16-16-16--13\14-14-14-14--13\14-14-14-14--14---|
E|------------------------------------------------------------------------------------------|

Outro

e|-----------------------------|
B|-----------------------------|
G|-----------------------------| x3
D|-----------------------5-5---|
A|-4-4-2-2-4-4-2-2-4-4-2-3-3---|
E|-2-2-0-0-2-2-0-0-2-2-0-------|

e|-----------------------------|
B|-----------------------------|
G|-----------------------------| 
D|-----------------------------|
A|-4---------------------------| 
E|-2---------------------------|

Song Order:

Intro
Verse
Chorus
Intro
Verse With Effects
Chorus
Bridge
Solo
Bridge 2
Verse With Wah
Chorus With Second Chorus Ending
Outro

************************************

| /   slide up
| \   slide down
| h   hammer-on
| p   pull-off
| ~   vibrato
| +   harmonic
| x   Mute note
| b   Bend
| pb  Pre-bend
| br  Bend release
| pbr Pre-bend release
| brb Bend release bend

************************************
Добавлено: 26.12.2015
Другие материалы по этой песне:
  • Аккорды и текст

Страница создана 26.12.2015
http://primanota.ru/jello-biafra-and-the-guantanamo-school-of-medicine/clean-as-a-thistle-chords.htm
Привет, Гость.
Предлагаем пройти революционный курс по гитаре.
Подарок от PrimaNota.Ru, забирай!