PrimaNota.ru - самый крупный в мире бесплатный архив песенных текстов, аккордов, табулатур и нот


Jehovahs Witnesses - A Victory Song 132 Lite - таба, видео

Регистрация Запомнить меня
Войти через:  Facebook Google Twitter Vk Yandex Mail.ru

Jehovahs Witnesses - A Victory Song 132 Lite - таба, видео

Печатать
Просмотров: 118
-------------------------------------------------------------------------------
                             A Victory Song - Jehovah's Witnesses
-------------------------------------------------------------------------------
Tabbed by: Maxim Ostapenko
E-mail: mnex11@mail.ru
Lite version. Only notes.

e|-----------------------------------------------------------------------------|
B|-----------------------------------------------------------------------------|
G|---------------------------------------------4--4-2--------------5--5-2------|
D|--2----0--4--2----------5--557--5452----2-----------5-5----4--2----------5--4|
A|----------------2----2-------------------------------------------------------|
E|-----------------------------------------------------------------------------|

e|----------------------------------------------------------------------------|
B|----------------------------------------------------------------------------|
G|---------------------------------------------4--4-2----------------------2-4|
D|--2----0--4--2----------5--557--5452----2------------5-5----4--2--4--4-5----|
A|----------------2----2------------------------------------------------------|
E|----------------------------------------------------------------------------|

Chorus
e|-----------------------------------------------------------------------------|
B|-----------------------------------------------------------------------------|
G|---5-5-----4-44------2-2---------24-----5-5-----4444------2--0---------------|
D|2------4-4-----2----2----1-1--245----2------4-4-----2----2------4--2--2--1--2|
A|-----------------------------------------------------------------------------|
E|-----------------------------------------------------------------------------|



************************************

| /   slide up
| \   slide down
| h   hammer-on
| p   pull-off
| ~   vibrato
| +   harmonic
| x   Mute note
| b   Bend
| pb  Pre-bend
| br  Bend release
| pbr Pre-bend release
| brb Bend release bend

************************************
Добавлено: 22.11.2015
Вам также может быть интересно:
Другие материалы по этой песне:
  • Аккорды и текст

Страница создана 22.11.2015
http://primanota.ru/jehovahs-witnesses/victory-song-132-lite-chords.htm
Привет, Гость.
Предлагаем пройти революционный курс по гитаре.
Подарок от PrimaNota.Ru, забирай!