PrimaNota.ru - самый крупный в мире бесплатный архив песенных текстов, аккордов, табулатур и нот


Jehovahs Witnesses - Song 120 Listen Obey And Be Blessed - таба, видео

Регистрация Запомнить меня
Войти через:  Facebook Google Twitter Vk Yandex Mail.ru

Jehovahs Witnesses - Song 120 Listen Obey And Be Blessed - таба, видео

Печатать
Просмотров: 109
Уроки эстрадного вокала в Санкт-Петербурге
-------------------------------------------------------------------------------
                             SONG NAME - Band Name
-------------------------------------------------------------------------------
Tabbed by: M. Ostapenko
E-mail: mnex11@mail.ru

Tuning: standart

e|-----------------------------------------------------|
B|-----------------------------------------------------|
G|-----------------------------------------------------|
D|-4-4-2-0---0-0-0---2-4-4-2---4-4-2-0---0-0-0---2-4---|
A|---------------------------------------------------2-|
E|-----------------------------------------------------|

e|-----------------------------------------------------|
B|-----------------------------------------------------|
G|-----------------------------------------------------|
D|-5-5-4-2---2-2-2---4-5-5-4---4-4-2-0---0-0-0---2-4-7-|
A|-----------------------------------------------------|
E|-----------------------------------------------------|

e|-----------------------------------------------------|
B|-----------------------------------------------------|
G|-----------------------------------------------------|
D|-4-2-4-5--4-5-7------5-7-5-4--0-4-2------------------|
A|-----------------------------------------------------|
E|-----------------------------------------------------|

e|-----------------------------------------------------------------------------|
B|-----------------------------------------------------------------------------|
G|-----------------------------------------------------------------------------|
D|-4-2-4-5--4-5-7--9-7-0------4-2-4-7---2-4-0----------------------------------|
A|-----------------------------------------------------------------------------|
E|-----------------------------------------------------------------------------|
Добавлено: 22.11.2015
Другие материалы по этой песне:
  • Аккорды и текст

Страница создана 22.11.2015
http://primanota.ru/jehovahs-witnesses/song-120-listen-obey-and-be-blessed-chords.htm
Привет, Гость.
Предлагаем пройти революционный курс по гитаре.
Подарок от PrimaNota.Ru, забирай!