PrimaNota.ru - самый крупный в мире бесплатный архив песенных текстов, аккордов, табулатур и нот


Jeffrey Lewis - Heavy Heart - таба, видео

Регистрация Запомнить меня
Войти через:  Facebook Google Twitter Vk Yandex Mail.ru

Jeffrey Lewis - Heavy Heart - таба, видео

Печатать
Просмотров: 92
-----------------------------------------------------------------
Heavy Heart – Jeffrey Lewis
-----------------------------------------------------------------
Tabbed by: Eric
Email: Ersmith38@hotmail.com
Tuning: D Tuning (Normally standard)

This is not exact but it gets the job done.

D|-----3---------------------3------3/5-5--------3---------------------|
A|-3/5---3/5-------------3/5---3/5-----------3/5---3/5-2/3-3-----------|
F|------------3/5-5----------------------------------------------------|
C|---------------------------------------------------------------------|
G|---------------------------------------------------------------------|
D|---------------------------------------------------------------------|

D|-----3------------3--------------------------------------------------|
A|-3/5---2/3----3/5---4—3h4-1-1----------------------------------------|
F|---------------------------------------------------------------------|
C|---------------------------------------------------------------------|
G|---------------------------------------------------------------------|
D|---------------------------------------------------------------------|

D|-----3---------------------3------3/5-5--------3---------------------|
A|-3/5---3/5-------------3/5---3/5-----------3/5---3/5-2/3-3-----------|
F|------------3/5-5----------------------------------------------------|
C|---------------------------------------------------------------------|
G|---------------------------------------------------------------------|
D|---------------------------------------------------------------------|
 “You say you got a heavy heart. You say you got a heavy heart. You say 
  you got a heavy heart.”

D|-----3------------3--------------------------------------------------|
A|-3/5---2/3----3/5---4—3h4-1-1----------------------------------------|
F|---------------------------------------------------------------------|
C|---------------------------------------------------------------------|
G|---------------------------------------------------------------------|
D|---------------------------------------------------------------------|
 “It's hard for you to start, carrying your heavy old heart.”

D|-----3---------------------3------3/5-5--------3---------------------|
A|-3/5---3/5-------------3/5---3/5-----------3/5---3/5-2/3-3-----------|
F|------------3/5-5----------------------------------------------------|
C|---------------------------------------------------------------------|
G|---------------------------------------------------------------------|
D|---------------------------------------------------------------------|
 “You say you got a heavy load. You say you got a heavy load. You say 
  you got a heavy load.”

D|-----3------------3--------------------------------------------------|
A|-3/5---2/3----3/5---4—3h4-1-1----------------------------------------|
F|---------------------------------------------------------------------|
C|---------------------------------------------------------------------|
G|---------------------------------------------------------------------|
D|---------------------------------------------------------------------|
 “Walkin' down the road, carrying your heavy old heart.”

 “But you…”

[Repeat 2x]
D|-------0-------------0-------------0-------------0-------------|
A|-----1---1---1-----1---1---1-----1---1---1-----1---1---1-------|
F|---2-------2-----2-------2-----0-------0-----0-------0---------|
C|-3-------------3-----------------------------------------------|
G|-----------------------------3-------------3-------------------|
D|---------------------------------------------------------------|
 “Sure don't know…      Where you're goin'.”
 
D|-------0-------------0-------------0-------------0-------------|
A|-----1---1---1-----1---1---1-----1---1---1-----1---1---0-------|
F|---2-------2-----2-------2-----0-------0-----2-------0---------|
C|-3-------------3---------------------------2-------------------|
G|-----------------------------3---------------------------------|
D|---------------------------------------------------------------|
 “Sure don't know…      Where you're goooooooin'.”

D|-------1---------3-3----------------0-------------0------------|
A|-----1---1---1---3---3---3--------1---1---1-----1---1---1------|
F|---2-------2-----------0--------0-------0-----0-------0--------|
C|-3-------------------------------------------------------------|
G|------------------------------3-------------3------------------|
D|---------------------------------------------------------------|
                                                   “But I say the…” 

D|-------0-------------0-------------0-------------0-------------|
A|-----1---1---1-----1---1---1-----1---1---1-----1---1---1-------|
F|---2-------2-----2-------2-----0-------0-----0-------0---------|
C|-3-------------3-----------------------------------------------|
G|-----------------------------3-------------3-------------------|
D|---------------------------------------------------------------|
 “Sun don't know…      When it's glowin'.”

D|-------0-------------0-------------0-------------0-------------|
A|-----1---1---1-----1---1---1-----1---1---1-----1---1---1-------|
F|---2-------2-----2-------2-----0-------0-----0-------0---------|
C|-3-------------3-----------------------------------------------|
G|-----------------------------3-------------3-------------------|
D|---------------------------------------------------------------|
 “Flower don't know…      When it's growin'.”

D|-------0-------------0-------------0-------------0-------------|
A|-----1---1---1-----1---1---1-----1---1---1-----1---1---0-------|
F|---2-------2-----2-------2-----0-------0-----2-------0---------|
C|-3-------------3---------------------------2-------------------|
G|-----------------------------3---------------------------------|
D|---------------------------------------------------------------|
 “A river don't know…      When it's flooooooowin'.”

D|-------1-------------1-------------2-------------2-------------|
A|-----1---1---1-----1---1---1-----1---1---1-----1---1---1-------|
F|---2-------2-----2-------2-----2-------2-----2-------2---------|
C|-3-------------3-------------0-------------0-------------------|
G|---------------------------------------------------------------|
D|---------------------------------------------------------------|
  “You're doin' better than you knoooooooow.”

D|-------1-------------3-------------0----------0----------------|
A|-----1---1---1-----3---3---3-----1---1---1----1----------------|
F|---2-------2-----0-------0-----0-------0------0----------------|
C|-3-------------0------------------------------2----------------|
G|-----------------------------3----------------3----------------|
D|----------------------------------------------x----------------|
  “You're doin' better than you know.”

Tablature Notation

h - hammer on 
p - pull off 
b - bend string up
r - release bend
/ - slide up
\ - slide down
v - vibrato (or ~)
t - right hand tap
x - play 'note' with heavy muting
Добавлено: 16.09.2013
Другие материалы по этой песне:
  • Аккорды и текст

Страница создана 16.09.2013
http://primanota.ru/jeffrey-lewis/heavy-heart-chords.htm
Привет, Гость.
Предлагаем пройти революционный курс по гитаре.
Подарок от PrimaNota.Ru, забирай!