PrimaNota.ru - самый крупный в мире бесплатный архив песенных текстов, аккордов, табулатур и нот


Jeffrey Lewis - Dont Let The Record Label Take You Out To Lunch - таба, видео

Регистрация Запомнить меня
Войти через:  Facebook Google Twitter Vk Yandex Mail.ru

Jeffrey Lewis - Dont Let The Record Label Take You Out To Lunch - таба, видео

Печатать
Просмотров: 92
Уроки эстрадного вокала в Санкт-Петербурге
The following is all my own work.


Jeffrey Lewis
"Don't Let the Record Label Take You Out to Lunch"
It's the Ones Who've Cracked That the Light Shines Through
Transcribed by J. Nummela  jn71777@hotmail.com>

Intro/Verse/Outro (played once for each line of verse):

   Am      Em        G        Em
e|-----------------|------------------|
B|-----1-------0---|-----0--------0---|
G|---2---2---0---0-|---0---0----0---0-|
D|-----------------|------------------|
A|-0---------------|------------------|
E|---------0-------|-3--------0-------|
...let...  label...  out...   lunch...
...one...  pay...    end...   day...

Chorus (played once for each line of chorus):

   D       D         Am       Am
e|-----2-------2---|-----0--------0---|
B|---3---3---3---3-|---1---1----1---1-|
G|-2-------2-------|-2--------2-------|
D|-----------------|------------------|
A|-----------------|------------------|
E|-----------------|------------------|
...even... know...   nobody...listening...
...say...  your...   good...  health

(Or so is my best guess.  I'm not at all experienced in this
sort of thing.  Please feel free to correct/update the tab.)

_________________________________________________________________
     
Добавлено: 05.08.2013
Другие материалы по этой песне:
  • Аккорды и текст

Страница создана 05.08.2013
http://primanota.ru/jeffrey-lewis/dont-let-the-record-label-take-you-out-to-lunch-chords.htm
Привет, Гость.
Предлагаем пройти революционный курс по гитаре.
Подарок от PrimaNota.Ru, забирай!