PrimaNota.ru - самый крупный в мире бесплатный архив песенных текстов, аккордов, табулатур и нот


Jeffrey Gaines - Nursey Rhyme - аккорды и текст, видео

Регистрация Запомнить меня
Войти через:  Facebook Google Twitter Vk Yandex Mail.ru

Jeffrey Gaines - Nursey Rhyme - аккорды и текст, видео

Печатать
Просмотров: 111
Уроки эстрадного вокала в Санкт-Петербурге
Nursey Rhyme
Jeffrey Gaines
Jeffrey Gaines

Nursery Rhyme

>From the 1994 CD Somewhat Slightly Dazed

Tabbed By Daniel James


Verse part 1
          A    A  

E)--------0----0---X----X---0---0---0---0-----X-----X--
B)--------2----2---X----X---3---3---3---3-----X-----X--
G)--------2----2---X----X---2---2---2---2-----X-----X--
D)--------2----2---X----X---2---2---2---2-----X-----X-
A)--------0----0------------0---0---0---0--------------
E)-----------------------------------------------------




Verse part 2
         F#/D      G        D     E

E)-------2---------3--------2-----0-------------------
B)-------3---------3--------3-----0-------------------
G)-------2---------0--------2-----1-------------------
D)-------0---------0--------0-----2-------------------
A)-------X---------2--------------2-------------------
E)-------2---------3--------------0----------------


Chorus
    A  G#/A  F#/A   E     D           E             E
E  
E)--0----0----0-----0-----2-----2-----0-----0-------0
B)--2----2----2-----0-----3-----3-----0-----0-------0
G)--2----2----2-----1-----2-----2-----1-----2-------1
D)--2----2----2-----2-----0-----X-----2-----2-------2
A)--0----X----X-----2-----------4-----2-----2-------2
E)-------4----2-----0-----------------0-----0-------0




Bridge part 1
         B       A          F#m            B

E)-------2-------0-----------2-------------2-----------
B)-------4-------2-----------2-------------4-----------
G)-------4-------2-----------2-------------4-----------
D)-------4-------2-----------4-------------4-----------
A)-------2-------0-----------4-------------2-----------
E)---------------------------2-----------------------

Bridge part 2
      A   G#/A   F#/A     E      A     G#/A  F#/A    E


E)----0-----0------0------0------0------ 0------0----0
B)----2-----2------2------0------2-------2------2----0
G)----2-----2------2------1------2-------2------2----1
D)----2-----2------2------2------2-------2------2----2
A)----0-----X------X------2------0-------X------X----2
E)----------4------2------0--------------4------2----0






The order of the parts is as follows:

Verse part 1 play  6 times
Verse part 2 play 1 time
Verse part 1  play 4 times 
Verse part 2 play 1 time
Chorus play 2 times 
Verse part 1  play 4 times 
Verse part 2 play 1 time
Verse part 1  play 4 times 
Verse part 2 play 1 time
Chorus play 2 times
Bridge part 1 play 1 time
Bridge part 2 play 1 time
Verse part 1  play 2 times


You will have to figure out the strumming of the
chords yourself, which isn't too hard. I think that
this tab is fairly accurate, but could have some
mistakes as I have typed it in by memory. Have fun.


__________________________________
     
Добавлено: 10.06.2013
Другие материалы по этой песне:
  • Аккорды и текст

Страница создана 10.06.2013
http://primanota.ru/jeffrey-gaines/nursey-rhyme-chords.htm
Привет, Гость.
Предлагаем пройти революционный курс по гитаре.
Подарок от PrimaNota.Ru, забирай!