PrimaNota.ru - самый крупный в мире бесплатный архив песенных текстов, аккордов, табулатур и нот


Jefferson Starship - Find Your Way Back - аккорды и текст, таба, бас-таба, видео

Регистрация Запомнить меня
Войти через:  Facebook Google Twitter Vk Yandex Mail.ru

Jefferson Starship - Find Your Way Back - аккорды и текст, таба, бас-таба, видео

Печатать
Просмотров: 163
Find Your Way Back
Jefferson Starship
Find Your Way Back
Jefferson Starship
From the Album-"Modern Times"
1981
Written by Craig Chaquico
Tabbed by Ray Scheidler



Intro/Main Riff Throughout Song:


   G
E-----3------1---0------------------------------|
B--------------------3---1---3------------------|
G--0-----0-----------------------0--------------|
D-----------------------------------------------|
A-----------------------------------------------|
E-----------------------------------------------|

E-----------------------------------------------|
B----------------0--------0---------------------|
G----0--------0--------0------------------------|
D----------3--------2--------0-------0----------|
A--------------------------------3--------------|
E--3----3---------------------------------3-----|

              G + Main
You know it's been a long long road

         G + Main
Since I packed up and left on my own

       G + Main
And I carry a heavy load

     G + Main
Just tryin' to get back to her heart

   F    C    G    F    C
E----------------------------------------------|
B----------------------------------------------|
G-------5--------------5-----------------------|
D--3----5----5----3----5-----------------------|
A--3----3----5----3----3-----------------------|
E--1---------3----1----------------------------|


   G + Main
E--7-7-7--8--10-------7-7-7--8--7-----10--8--7-|
B----------------8-----------------8-----------|
G----------------------------------------------|
D----------------------------------------------|
A----------------------------------------------|
E----------------------------------------------|

E--8--7-----------13---15---19---20---(15)-----|
B--------8---15--------------------------------|
G----------------------------------------------|
D----------------------------------------------|
A----------------------------------------------|
E----------------------------------------------|


   G + Main
I sure ain't got no home

   G + Main
I seem to find love where I ramble

      G + Main
And when it's time to go

   G + Main
I hear that voice again   sayin'


   G            G/F       G/C    G/F
E--3----3----3---3-3-3-3---3-3-3--3-3-3-3-3----|
B----------------------------------------------|
G----------------------------------------------|
D----------------------------------------------|
A--------------------------3-3-3---------------|
E--3----3----3---1-1-1-1----------1-1-1-1-1----|
  Find your way back


   G            G/F         G/C
E--3----3----3---3----3--3---3--3-3-3--3-3-3-3-|
B----------------------------------------------|
G----------------------------------------------|
D----------------------------------------------|
A----------------------------3--3-3-3--3-3-3-3-|
E--3----3----3---1----1--1---------------------|
  Find your way back to her heart

   G            G/F       G/C    G/F
E--3----3----3---3-3-3-3---3-3-3--3-3-3-3-3----|
B----------------------------------------------|
G----------------------------------------------|
D----------------------------------------------|
A--------------------------3-3-3---------------|
E--3----3----3---1-1-1-1----------1-1-1-1-1----|
  Find your way back


   G            G/F          C      G
E--3----3---3----3----3--3---------------------|
B----------------------------------------------|
G----------------------------5-----------------|
D----------------------------5------5----------|
A----------------------------3------5----------|
E--3----3----3---1----1--1----------3----------|
  Find your way back to her heart

E-----3--------------3-------------------------|
B--------3--1-----------3--1--0----------------|
G--0--------------0--------------0-------------|
D----------------------------------------------|
A----------------------------------------------|
E----------------------------------------------|

E-----3--------------3-------------------------|
B--------3--1-----------3--1--0----------------|
G--0--------------0--------------0-------------|
D----------------------------------------------|
A----------------------------------------------|
E----------------------------------------------|

(Intro/Main: Twice)


         G + Main
Leave a message with the rain

G + Main
You can find me where the wind blows

G + Main
The snow across the plain

          G + Main
And the frost upon the heart

   F  C   A
E-----------------------------------------------|
B---------2-------------------------------------|
G-----5---2-------------------------------------|
D--3--5---2-------------------------------------|
A--3--3-----------------------------------------|
E--1--------------------------------------------|
     You got no place to be

  A
Still you wonder where love's goin'

      G + Main
And why I had to leave

   G + Main
I hear a voice it says to me


 G            G/F       G/C    G/F
E--3----3----3---3-3-3-3---3-3-3--3-3-3-3-3----|
B----------------------------------------------|
G----------------------------------------------|
D----------------------------------------------|
A--------------------------3-3-3---------------|
E--3----3----3---1-1-1-1----------1-1-1-1-1----|
  Find your way back


   G            G/F         G/C       G  F  C
E--3----3---3----3----3--3---3-----------------|
B----------------------------------------------|
G----------------------------------------------|
D----------------------------------------------|
A----------------------------3-----------------|
E--3----3----3---1----1--1---------------------|
  Find your way back to her heart


G  F  C      A   G  D  A  
 A
     To her heart

    G       G/F      G/C
I know it's too late now

G/F    G      G/F     G/C
But I wish I could go back in time

      G       G/F      G/C  G/F
And start all over somehow

G       G/F       G/C
And get it right from the start

     G            G/F  G/C  G/F
And find your way back

 G            G/F          G/C
Find your way back to her heart

 G             G/F  G/C  G/F
Find your way back

 G            G/F          G/C   G 
G/C G/F
Find your way back to her heart

 G        G/F      G/C G/F
Find your way back

 G        G/F      G/C
Find your way back

(Repeat and Fade)
Добавлено: 04.07.2012
Другие материалы по этой песне:
  • Аккорды и текст

Страница создана 25.03.2012
http://primanota.ru/jefferson-starship/find-your-way-back-chords.htm
Привет, Гость.
Предлагаем пройти революционный курс по гитаре.
Подарок от PrimaNota.Ru, забирай!