PrimaNota.ru - самый крупный в мире бесплатный архив песенных текстов, аккордов, табулатур и нот


Jefferson Airplane - Young Girls Sunday Blues - таба, видео

Регистрация Запомнить меня
Войти через:  Facebook Google Twitter Vk Yandex Mail.ru

Jefferson Airplane - Young Girls Sunday Blues - таба, видео

Печатать
Просмотров: 152
The main chords to the song are in D minor. Jorma solos in D Minor throughout the 
song except in the guitar solo and the first coda. Look at bottom for more details.

Intro: 
   Jorma
e|--------------------------|
B|--6v~--8v~----x6v~--8v~---|
G|--------------x-----------|
D|--7v~----8v~--x7v~----8v~-|
A|--------------------------|
E|--------------------------|
 | Paul
e|--------------------------|
B|-----6------------6-------|
G|-----0------------0-------|
D|-----7------------7-------|
A|--------------------------|
E|--------------------------|

    Jorma
e|---------------------------------------------------|
B|---5--5--5----6--6--6----8--8--8----6--6--6--------|
G|----0--0-------0--0-------0--0-------0--0----------|
D|--5--5--5----7--7--7----8--8--8----7--7--7---------|
A|---------------------------------------------------|
E|---------------------------------------------------| 
 | Paul
e|---------------------------------------------------|
B|--5--5-------6--6-------8--8-------6--6------------|
G|--0--0-------0--0-------0--0-------0--0------------|
D|--5--5-------7--7-------8--8-------7--7------------|
A|---------------------------------------------------|
E|---------------------------------------------------| 
  In my heart I have a feeling, and I don't know what I'm gonna do
  What should I do? Oh, what a beautiful world, the world; What should I do?

   Bb or x-8-8-7-6-6 
e|-------------------------------------------------------------------|
B|--6-------6-------6-------6-------6-------6-------6-----6------6---|
G|--7-------7-------7-------7-------7-------7-------7-----7------7---|
D|--8-------8-------8-------8-------8-------8-------8-----8------8---|
A|--8-------8-------8-------8-------8-------8-------8-----8------8---|
E|--6-------6-------6-------6-------6-------6-------6-----6------6---|
  Don't you know what I have found? Maybe you've found it too;

e|------------------------------------------------------|
B|---5--5--5-------6--6--6------------------------------|
G|----0--0----------0--0--------------------------------|
D|--5--5--5-------7--7--7-------------------------------|
A|------------------------------------------------------|
E|------------------------------------------------------| 
 | Paul                           Eb
e|------------------------------------------------------|
B|--5--5----------6--6------------8-8-8-8---------------|
G|--0--0----------0--0------------8-8-8-8---------------|
D|--5--5----------7--7------------8-8-8-8---------------|
A|--------------------------------6-6-6-6---------------|
E|------------------------------------------------------| 
   Today is made up yesterday and tomorrow


   Jorma
e|---------------------------------------------------|
B|---5--5--5----6--6--6----8--8--8----6--6--6--------|
G|----0--0-------0--0-------0--0-------0--0----------|
D|--5--5--5----7--7--7----8--8--8----7--7--7---------|
A|---------------------------------------------------|
E|---------------------------------------------------| 
 | Paul
e|---------------------------------------------------|
B|--5--5-------6--6-------8--8-------6--6------------|
G|--0--0-------0--0-------0--0-------0--0------------|
D|--5--5-------7--7-------8--8-------7--7------------|
A|---------------------------------------------------|
E|---------------------------------------------------| 
  Young Girl Sunday Blues, and all her sorrow 

Solo: D Mixolydian

First Coda: Solo in D Mixolydian. 
Bm  Bm           D     A\(slide down)
Oh, come into my mind, let yourself wonder free and easy
Bm  Bm           D     
Oh, come into my life

Second Coda: Vamp out in D Minor
G// C// F// C//
Sunday blues girl, you're only true girl
Добавлено: 02.07.2012
Другие материалы по этой песне:
  • Аккорды и текст

Страница создана 02.07.2012
http://primanota.ru/jefferson-airplane/young-girls-sunday-blues-chords.htm
Привет, Гость.
Предлагаем пройти революционный курс по гитаре.
Подарок от PrimaNota.Ru, забирай!