PrimaNota.ru - самый крупный в мире бесплатный архив песенных текстов, аккордов, табулатур и нот


Jefferson Airplane - She Has Funny Cars - текст песни, таба, видео

Регистрация Запомнить меня
Войти через:  Facebook Google Twitter Vk Yandex Mail.ru

Jefferson Airplane - She Has Funny Cars - текст песни, таба, видео

Печатать
Просмотров: 189
Уроки эстрадного вокала в Санкт-Петербурге
Авторы музыки: Jorma Kaukonen
Авторы текста: Marty Balin
3/4/06
Song - She has funny cars
Band - Jefferson Airplane
Album - Surrealistic Pillow

Tabbed by - Rhino  (merlin876@hotmail.com)

(standard tuning -EADGBE)

Verse - Guitar 1
E--------------------------------------------------------------------------|
B--------------------------------------------------------------------------|
G--------------------------------------------------------------------------|
D--------------------------------------------------------------------------|
A----------------7--5--4-----------------7--5--4---------------------------|
E-------------0-----------7--5--0-----0-----------7--5--0------------------|
  (drum intro)

Verse - guitar 2 (starts 0.15)
E---------------------------------------------------------------------------|
B---------------------------------------------------------------------------|
G----------------5--3--2-----------------5--3--2----------------------------|
D----------------5--3--2--5--3-----------5--3--2--5--3----------------------|
A----------------7--5--4--5--3-----------7--5--4--5--3----------------------|
E--------------0----------7--5--0------0----------7--5--0-------------------|


Bridge - guitar 1
E--------------------------------------------------------------------------|
B--------------------------------------------------------------------------|
G--------------------------------------------------------------------------|
D--------------------------------------------------------------------------|
A-----------------12-------------------------------------------------------|
E---5--7--10--12--------------5--6--7--------------------------------------|


Pre-chorus
E--------------------------------------------------------------------------|
B-----3--3--3--2----2--2--2--2--3--2--3--3--2------------------------------|
G-----4--4--4--4----4--4--4--4---------------------------------------------|
D---4-------------4--------------------------------------------------------|
A--------------------------------------------------------------------------|
E--------------------------------------------------------------------------|
  use Bm chord


Pre-chorus
E-------------------------------------------2------------------------------|
B-----3--3--3--2----2--2--2--2--3--2--3--3--2------------------------------|
G-----4--4--4--4----4--4--4--4---------------------------------------------|
D---4-------------4--------------------------------------------------------|
A--------------------------------------------------------------------------|
E--------------------------------------------------------------------------|


Chorus
E-------7-----5-----------2-------------------------------------------------|
B-------7-----5-----------2-------------------------------------------------|
G-------8-----6-----1-----3-------------------------------------------------|
D-------9-----7-----2-----4-------------------------------------------------|
A-------9-----7-----2-----4-------------------------------------------------|
E-------7-----5-----0-----2-------------------------------------------------|


Could'nt get the solo sorry, hope this sounds accurate enough. Cheers.
Добавлено: 16.06.2012
Другие материалы по этой песне:

Страница создана 29.02.2012
http://primanota.ru/jefferson-airplane/she-has-funny-cars-chords.htm
Привет, Гость.
Предлагаем пройти революционный курс по гитаре.
Подарок от PrimaNota.Ru, забирай!