PrimaNota.ru - самый крупный в мире бесплатный архив песенных текстов, аккордов, табулатур и нот


Jefferson Airplane - Other Side Of This Life - аккорды и текст, таба, видео

Регистрация Запомнить меня
Войти через:  Facebook Google Twitter Vk Yandex Mail.ru

Jefferson Airplane - Other Side Of This Life - аккорды и текст, таба, видео

Печатать
Просмотров: 153
Other Side Of This Life
Jefferson Airplane
Lead guitar solos in G Dorian.

G-----------------------------------------------4-5-5/70------------------|
D-5-5-5-503-3--------505---53-3------505---53-3---------------53-3--------|
A------------03-4-50------5----03-4-5-----5----0-----------34-----034-554-|
E------------------------3---------------3---------------3----------------|

G--5--5-------------------------------5-5------------|
D--------3--3--3---5-503-3-----------------3--3--3---|
A---3-3-------------------34-54-54-3--3-3-----------|
E---------01-01--3--------------------------01-01--3-|

 |                                       (strum each chord once)
e|---------------------------------------------------------------|
B|----------------------------------------3~~~~--1~~~~~--8~~~~---|
G|----------------------------------------4~~~~--2~~~~~--9~~~~---|
D|----------------------------------------5~~~~--3~~~~~--10~~~---|
A|---------------------------------------------------------------|
E|---------------------------------------------------------------|
                                          G      F       C

0:19
   ^v^v^ v       (funk rhythm, listen to record for actual rhythm)
e|-x7x7x/555555--x7x7x777777--|
B|-x8x7x/666666--x8x8x788888--|
G|-x7x7x/555555--x7x7x777777--|
D|----------------------------|
A|----------------------------|
E|----------------------------| The guitar is just a lot of
                                transitions between these two chords- G and F



Verse:
    v^v^v ^
e|-------------------------------------------|
B|--x3x3x/1~~-x3x3x/1~~-x3x3x/1~~-x3x3x/1~~--|
G|--x4x4x/2~~-x4x4x/2~~-x4x4x/2~~-x4x4x/2~~--|
D|--x5x5x/3~~-x5x5x/3~~-x5x5x/3~~-x5x5x/3~~--|
A|-------------------------------------------|
E|-------------------------------------------|


Chorus:
These are the chords for the chorus in the order they are played. Listen to the
for rhythm, number of strums etc.
e|------------------------------------------------------|
B|--x8--------1--------------x3~~~~~~~~~~~~~~~~~~~~~----|
G|--x9--------2--------------x4~~~~~~~~~~~~~~~~~~~~~----|
D|--x10-------3--------------x5~~~~~~~~~~~~~~~~~~~~~----|
A|------------------------------------------------------|
E|------------------------------------------------------|
    That's the other side of this life yeah I've been leadin

e|------------------------------------------------------|
B|--x8--------1--------------x3~~~~~~~~~~~~~-~~~~~~-----|
G|--x9--------2--------------x4~~~~~~~~~~~~~~~~~~-~-----|
D|--x10-------3--------------x5~~~~~~~~~~~~~~~~~~~~-----|
A|------------------------------------------------------|
E|------------------------------------------------------|
     That's the other side of this life

Bridge:
(each chord strummed once)
e|--------------------------------------|
B|--3~~~~-1~~~~-8~~~--3~~~~-1~~~~-8~~~--|
G|--4~~~~-2~~~~-9~~~--4~~~~-2~~~~-9~~~--|
D|--5~~~~-3~~~~-10~~--5~~~~-3~~~~-10~~--|
A|--------------------------------------|
E|--------------------------------------|

Repeat Verse
Repeat Chorus
Solo in G Dorian.
Repeat Verse
Repeat Chorus
Добавлено: 14.03.2012
Другие материалы по этой песне:
  • Аккорды и текст

Страница создана 14.03.2012
http://primanota.ru/jefferson-airplane/other-side-of-this-life-chords.htm
Привет, Гость.
Предлагаем пройти революционный курс по гитаре.
Подарок от PrimaNota.Ru, забирай!