PrimaNota.ru - самый крупный в мире бесплатный архив песенных текстов, аккордов, табулатур и нот


Jefferson Airplane - Good Shepherd - аккорды и текст, таба, видео

Регистрация Запомнить меня
Войти через:  Facebook Google Twitter Vk Yandex Mail.ru

Jefferson Airplane - Good Shepherd - аккорды и текст, таба, видео

Печатать
Просмотров: 177
Авторы: [traditional]

Good Shepherd
Jefferson Airplane
intro:
E E D Asus2 -or- D Asus2
E-|--0--0--------------------0--------------2--2--2--2--0---------------------
B-|--0--0--------3--3--3--3--0--------------0--2--3--2--0---------------------
G-|--1--1--------2--2--2--2--2--------------2--2--2--2--2---------------------
D-|--2--2--------0--0--0--0--2--------------------------2---------------------
A-|--2--2--------2--4-----4---------------------------------------------------
E-|--0--0---------------------------------------------------------------------
^-melody in bass ^-melody on "B" string
 

verses:
E D
E-|--0-----2------------------------------------------------------------------
B-|--0-----3------------------------------------------------------------------
G-|--1-----2------------------------------------------------------------------
D-|--2-----0------------------------------------------------------------------
A-|--2------------------------------------------------------------------------
E-|--0------------------------------------------------------------------------


pre-chorus:
E D F#m B
E-|--0--------------2--------------2-----------------2------------------------
B-|--0--------------3--------------2-----------------4------------------------
G-|--1--------------2--------------2-----------------4------------------------
D-|--2--------------0--------------4-----------------4------------------------
A-|--2-----------------------------4-----------------2------------------------
E-|--0-----------------------------2-----------------2------------------------
Oh, good shepherd feed my sheep.


chorus:
E F#m Abm7 A
E-|--0-----------2--------4-----------0---------------------------------------
B-|--0-----------2--------4-----------2---------------------------------------
G-|--1-----------2--------4-----------2---------------------------------------
D-|--2-----------4--------4-----------2---------------------------------------
A-|--2-----------4--------6-----------0---------------------------------------
E-|--0-----------2--------4---------------------------------------------------
One for Paul, one for Silas,


E D E E D B
E-|--0--------------2-----0--0--------2-----2---------------------------------
B-|--0--------------3-----0--0--------3-----4---------------------------------
G-|--1--------------2-----1--1--------2-----4---------------------------------
D-|--2--------------0-----2--2--------0-----4---------------------------------
A-|--2--------------------2--2--------------2---------------------------------
E-|--0--------------------0--0--------------2---------------------------------
One for to- day my heart with joy.

E F#m Abm7 A
E-|--0-----------2--------4--------------5------------------------------------
B-|--0-----------2--------4--------------5------------------------------------
G-|--1-----------2--------4--------------6------------------------------------
D-|--2-----------4--------4--------------7------------------------------------
A-|--2-----------4--------6--------------7------------------------------------
E-|--0-----------2--------4--------------5------------------------------------
Can't you hear my lambs A- callin'

E D B E
E-|--0-----------2-----------2--------0---------------------------------------
B-|--0-----------3-----------4--------0---------------------------------------
G-|--1-----------2-----------4--------1---------------------------------------
D-|--2-----------0-----------4--------2---------------------------------------
A-|--2-----------------------2--------2---------------------------------------
E-|--0-----------------------2--------0---------------------------------------
Oh, good shepherd, feed my sheep.


bridge:
3x F#
E-|--------------------|------------------------------------------------------
B-|--------------------|-11---------------------------------------------------
G-|--------------------|-11---------------------------------------------------
D-|--------------------|-11---------------------------------------------------
A-|--------------------|--9---------------------------------------------------
E-|-10--9--7--9--7--9--|------------------------------------------------------
Добавлено: 30.08.2013
Другие материалы по этой песне:

Страница создана 24.04.2012
http://primanota.ru/jefferson-airplane/good-shepherd-chords.htm
Привет, Гость.
Предлагаем пройти революционный курс по гитаре.
Подарок от PrimaNota.Ru, забирай!