PrimaNota.ru - самый крупный в мире бесплатный архив песенных текстов, аккордов, табулатур и нот


Jefferson Airplane - Go To Her - таба, видео

Регистрация Запомнить меня
Войти через:  Facebook Google Twitter Vk Yandex Mail.ru

Jefferson Airplane - Go To Her - таба, видео

Печатать
Просмотров: 77
Авторы музыки: Paul Kantner
Авторы текста: Irving Estes
-------------------------------------------------------------------------------
                        GO TO HER - Jefferson Airplane
-------------------------------------------------------------------------------
Tabbed by: sezar
E-mail: keanu-rimedorf@hotmail.com

Tuning: Standart

Am - Em - Am - D -

e|-0-1-0-----------|
B|-------3-1-------|
G|-----------2-----|
D|-------------2-0-|
A|-----------------|
E|-----------------|

Am - Em - Am - D -

e|-----------5-3-5-|
B|-5-3-1-3-1-------|
G|-----------------|
D|-----------------|
A|-----------------|
E|-----------------|

Am - Em - Am - D -

e|-5-3-0-----------0---------------|
B|-------3-1---------3-1-3-1-------|
G|-----------2-0-2-----------2-0-2-|
D|---------------------------------|
A|---------------------------------|
E|---------------------------------|


************************************

| /   slide up
| \   slide down
| h   hammer-on
| p   pull-off
| ~   vibrato
| +   harmonic
| x   Mute note
| b   Bend
| pb  Pre-bend
| br  Bend release
| pbr Pre-bend release
| brb Bend release bend

************************************
Добавлено: 11.04.2016
Другие материалы по этой песне:
  • Аккорды и текст

Страница создана 11.04.2016
http://primanota.ru/jefferson-airplane/go-to-her-chords.htm
Привет, Гость.
Предлагаем пройти революционный курс по гитаре.
Подарок от PrimaNota.Ru, забирай!