PrimaNota.ru - самый крупный в мире бесплатный архив песенных текстов, аккордов, табулатур и нот


Jeff Wayne - Dead London - таба, видео

Регистрация Запомнить меня
Войти через:  Facebook Google Twitter Vk Yandex Mail.ru

Jeff Wayne - Dead London - таба, видео

Печатать
Просмотров: 257
Авторы музыки: Jeff Wayne

-------------------------------------------------------------------------------
JEFF WAYNE'S THE WAR OF THE WORLDS – “DEAD LONDON (part 1)”.
-------------------------------------------------------------------------------
Tabbed by: S.Johnson 2008.

Tuning:E,A,D,G,B,E.
INTRO: (Clean uni-vibed/tremolo/flanged guitars).
(There are several guitars playing this; here is a tab combining the parts)
    Let notes ring play as one chord
e|---------------------------------------------------------------------------|
B|---------------------------------------------------------------------------|
G|----------3--------------------------------3-------------------------------|
D|-------4-----4-------3------------------4----------------------------------|
A|---6--------------------------------2---------2----(2)/(6)-----------------|
E|-----------------6---------------------------------------------------------|
                          HO
e|---------------------------------------------------------------------------|
B|---------------------------------------------------------------------------|
G|----------3----------------------------------------------------------------|
D|-------4-----4-------3-(4)-------------------------------------------------|
A|---6-----------------------------------------------------------------------|
E|-----------------6---------------------------------------------------------|

e|---------------------------------------------------------------------------|
B|---------------------------------------------------------------------------|
G|----------3--------------------------------3-------------------------------|
D|-------4-----4-------3------------------4----------------------------------|
A|---6--------------------------------2---------2----(2)/(6)-----------------|
E|-----------------6---------------------------------------------------------|
                          
e|---------------------------------------------------------------------------|
B|---------------------------------------------------------------------------|
G|----------3----------------------------------------------------------------|
D|-------4-----4-------3-----------------/(4)-------/(6)------3.-------------|
A|---6-----------------------------------/(6)-------/(8)------4.-------------|
E|-----------------6---------------------------------------------------------|
Harmonized guitars:-
   Guitar 1:
e|---------------------------------------------------------------------------|
B|---------------------------------------------------------------------------|
G|---------------------------------------------------------------------------|
D|--3-----3.-----4-----4.-----3----4-4.--3-3.-------2-2.--4-2.---6-----------|
A|--1-----1.-----2-----2.-----1----2—2.--1-1.-6-6.--0—0.--2-2.---4-----------|
E|--------------------------------------------4-4.---------------------------|
   Guitar 2:
e|---------------------------------------------------------------------------|
B|---------------------------------------------------------------------------|
G|--6-----6.-----8-----8.-----6----8-8.--6-6.-4-4.--6-6.--7-7.---9-----------|
D|--8-----8.-----9-----9.-----8----9-9.--8-8.-6-6.--6-6.--9-9.---11----------|
A|---------------------------------------------------------------------------|
E|---------------------------------------------------------------------------|







    Guitar 1:
e|---------------------------------------------------------------------------|
B|---------------------------------------------------------------------------|
G|---------------------------------------------------------------------------|
D|---------2-2.---2-2.---6---------------------------------------------------|
A|--6-6.---0-0.---4-4.---4---------------------------------------------------|
E|--4—4.---------------------------------------------------------------------|

    Guitar 2:
e|---------------------------------------------------------------------------|
B|---------------------------------------------------------------------------|
G|--4-4.---6-6.---7-7.---9---------------------------------------------------|
D|--6-6.---6-6----9-9.---11--------------------------------------------------|
A|---------------------------------------------------------------------------|
E|---------------------------------------------------------------------------|



| /  slide up           | \  slide down
| h  hammer-on          | p  pull-off
| ~  vibrato            | +  harmonic
| x  Mute note          | .  Staccato
Добавлено: 01.03.2012
Другие материалы по этой песне:
  • Аккорды и текст

Страница создана 01.03.2012
http://primanota.ru/jeff-wayne/dead-london-chords.htm
Привет, Гость.
Предлагаем пройти революционный курс по гитаре.
Подарок от PrimaNota.Ru, забирай!