PrimaNota.ru - самый крупный в мире бесплатный архив песенных текстов, аккордов, табулатур и нот


Jeff Wayne - Artilleryman The Fighting Machine - таба, видео

Регистрация Запомнить меня
Войти через:  Facebook Google Twitter Vk Yandex Mail.ru

Jeff Wayne - Artilleryman The Fighting Machine - таба, видео

Печатать
Просмотров: 94
Уроки эстрадного вокала в Санкт-Петербурге
Artilleryman and the Fighting Machine - Solo
6:41
|---------------------------------------------|
|------6-----------6~-------6-8-6---------6---|
|--5-7---7-5-7-5-7----------------7-5-7-5---7-|
|---------------------------------------------|
|---------------------------------------------|
|---------------------------------------------|

|---------------------------------------|
|------6---8--10-8-10-8-6--8---10-8-6\5-|
|--7------------------------------------|
|---------------------------------------|
|---------------------------------------|
|---------------------------------------|

|----------------------------------------|
|------6---8---10-8-10-8-6--8--10---8/20-|
|--7-------------------------------------|
|----------------------------------------|
|----------------------------------------|
|----------------------------------------|

|------------------------------------------------------------------------------------------------|
|----------------------18-----1818/20\18---------------18--------18--18--18--18--18--18--18--18\-|
|--17--19--17-19-17-19--------------------19-17--19--17----19~-----19--19--19--19--19--19--1919\-|
|------------------------------------------------------------------------------------------------|
|------------------------------------------------------------------------------------------------|
|------------------------------------------------------------------------------------------------|

My first attempt at any guitar tab.  Was frustrated trying to find this solo anywhere.  It's easily the
best solo on the entire album.
Please go easy on it for timing etc.
Добавлено: 09.12.2015
Другие материалы по этой песне:
  • Аккорды и текст

Страница создана 09.12.2015
http://primanota.ru/jeff-wayne/artilleryman-fighting-machine-chords.htm
Привет, Гость.
Предлагаем пройти революционный курс по гитаре.
Подарок от PrimaNota.Ru, забирай!