PrimaNota.ru - самый крупный в мире бесплатный архив песенных текстов, аккордов, табулатур и нот


Jeff Tweedy - Was I In Your Dreams - аккорды и текст, видео

Регистрация Запомнить меня
Войти через:  Facebook Google Twitter Vk Yandex Mail.ru

Jeff Tweedy - Was I In Your Dreams - аккорды и текст, видео

Печатать
Просмотров: 101
Was I In Your Dreams
Jeff Tweedy
-------------------------------------------------------------------------------
                             (WAS I) IN YOUR DREAMS - Jeff Tweedy
-------------------------------------------------------------------------------
Tabbed by: jvwald

This tab is based on this YouTube video:
https://www.youtube.com/watch?v=z7Ef5FMIHqs

If you find this tab helpful, check out the other Wilco/Tweedy tabs I've posted.

G/D x5543x
D6 x542xx
C/G 332010
E 022100
Am x02210
D/F# 20023x
G 320033

intro
e|---------------------------------------------------------------|
B|--3-----3-----0---------------------1-------------------0------|
G|--3h4-----4-----------2---------------0---0-0h1 0h1 0h1---1----|
D|--5---5-----5---3/4-----4---0-1h2-------2---2---------------2--|
A|--5-----------------5-----5---3---3---------2------------------|
E|------------------------------3--------------------------------|

e|--0-0-----------------------------------3--|
B|--1-1-----1-----------3-------1-----1---3--|
G|--2-2-0h2-----1---------2---0-0-------0-0--|
D|--2-2-------2-------0-----0---2-0h2-----0--|
A|--0-0-------------------------3---------2--|
E|----------------1h2-----------3---------3--|

      G/D             D6
Was I in your dreams, I'd like to know.
C/G                               E
Did I touch your hand and did it feel like snow?
Am                            D/F#                 C/G   riff 1   G
Try to understand while I've got you on the phone.

riff 1
e|-----------|
B|------1----|
G|-----------|
D|--0h2---2--|
A|-----------|
E|-----------|

      G/D             D6
Did I hurt you like I know I can?
C/G                               E
Tell me why you'd ever wanna leave your lovin' man.
Am                            D/F#          C/G   riff 1   G
Try to understand, please try to understand.

riff 2
e|----3---5---6-7-|
B|----------------|
G|----------------|
D|----------------|
A|----------------|
E|--3---5---6-----|

riff 2   C/G    G
Was I in your dreams?
riff 2   C/G    G
Was I in your dreams?

intro

G/D                          D6
This dreamer died when his dreams died too.
C/G                            E
But I don't really mind if I dream about you.
Am               D/F#              C/G   riff 1   G
I can't say what any of that means.

          G/D              D6
Oh, was I in your dreams, late last night.
C/G                             E
Did you hold pillow, did you squeeze me tight?
Am                       D/F#           C/G   riff 1   G
I just wanna make everything all right.

riff 2   C/G    G
Was I in your dreams?
riff 2   C/G    G
Was I in your dreams?

B   Em   F   C
               Was I?
B   Em   C   G

************************************

| /   slide up
| \   slide down
| h   hammer-on
| p   pull-off
| ~   vibrato
| +   harmonic
| x   Mute note
| b   Bend
| pb  Pre-bend
| br  Bend release
| pbr Pre-bend release
| brb Bend release bend

************************************
Добавлено: 06.11.2015
Другие материалы по этой песне:
  • Аккорды и текст

Страница создана 06.11.2015
http://primanota.ru/jeff-tweedy/was-i-in-your-dreams-chords.htm
Привет, Гость.
Предлагаем пройти революционный курс по гитаре.
Подарок от PrimaNota.Ru, забирай!