PrimaNota.ru - самый крупный в мире бесплатный архив песенных текстов, аккордов, табулатур и нот


Jeff Tweedy - Box Full Of Letters - аккорды и текст, видео

Регистрация Запомнить меня
Войти через:  Facebook Google Twitter Vk Yandex Mail.ru

Jeff Tweedy - Box Full Of Letters - аккорды и текст, видео

Печатать
Просмотров: 131
Уроки эстрадного вокала в Санкт-Петербурге
Авторы музыки: Jeff Tweedy

Box Full Of Letters
Jeff Tweedy
-------------------------------------------------------------------------------
                BOX FULL OF LETTERS (ACOUSTIC) - Jeff Tweedy
-------------------------------------------------------------------------------
Tabbed by: jvwald

This tab is based on this YouTube video:
https://www.youtube.com/watch?v=cc9yuHNBwQ4

If you find this tab helpful, check out the other Wilco/Tweedy tabs I've posted.

Capo II

D x00232
A x02220
G 320033
Em 022000
Asus4 x02230
Asus2 x02200
Gmaj7no3/F# 2x0033


intro
e|--2-2---2h3-0-2---2---2h3-2-0--|
B|--3---3-------3-3---3----------|
G|--2-----------2----------------|   x2
D|--0-----------0----------------|
A|--0----------------------------|
E|-------------------------------|

D      A           G      riff 1
Got a box full of letters,
Em                       G  riff 2
Think you might like to read
D       A             G             riff 1
Some things that you might like to see,
            Em                riff 3
But they're all addressed to me
D       A          riff 4
Wish I had a lotta answers,
Em                               riff 4
'Cause that's the way it should be
D   A          G        riff 1
For all these questions,
Em                 G
Being directed at me

riff 1
e|-----------|
B|-----------|
G|-----------|
D|------0----|
A|--0h2------|
E|--------2--|

riff 2
e|-----------|
B|-----------|
G|--------0--|
D|------0-0--|
A|--0h2---2--|
E|--------3--|

riff 3
e|--------0--|
B|--0-2-3-0--|
G|--0-0-0-0--|
D|--0-0-0-0--|
A|--x-x-x-x--|
E|--3-3-3-3--|

riff 4
e|--5-5-5-3--|
B|--0-0-0-0--|
G|--0-0-0-0--|
D|--0-0-0-0--|
A|--2-2-2-2--|
E|--3-3-3-3--|

        D              A
I just can't find the time
             G
To write my mind
                      intro
The way I want it to read
A                   D   riff 5   A   Asus4   A   Asus4   A
You'll come back again
                D             riff 5   A   Asus2
And I'll still be your friend

riff 5
e|--------3-3-3-3--|
B|--------3-3-3-3--|
G|--------0-0-0-0--|
D|--------0-0-0-0--|
A|--------2-x-x-x--|
E|--0-2-3-3-3-2-2--|

D        A           G      riff 1
I got a lot of your records,
Em              G  riff 2
In a separate stack
D      A            G             riff 1
Some things that I might like to hear,
       Em                  riff 3
But I guess I'll give 'em back
D         A          riff 4
I wish I had a lotta answers,
Em                               riff 4
'Cause that's the way it should be
D   A      G        riff 1
All these questions
Em                 G
Being directed at me

        D              A
I just can't find the time
             G
To write my mind
                      intro
The way I want it to read
A                   D   riff 5   A   Asus4   A   Asus4   A
You'll come back again
                D             riff 5   A   Asus2
And I'll still be your friend

D   A   G   riff 1   Em   G   riff2
D   A   G

        D              A
I just can't find the time
             G
To write my mind
                      intro
The way I want it to read

        D              A
I just can't find the time
             G
To write my mind
                      intro
The way I want it to read

A   riff 6   D   riff 7   G   Gmaj7no3/F#
A   riff 6   D   riff 7   G   Gmaj7no3/F#   Asus2   A   D

riff 6
e|-----------|
B|-----------|
G|-----------|
D|--------0--|
A|--0-0h4----|
E|-----------|

riff 7
e|-----------|
B|-----------|
G|--------0--|
D|--0-0h4----|
A|-----------|
E|-----------|

************************************

| /   slide up
| \   slide down
| h   hammer-on
| p   pull-off
| ~   vibrato
| +   harmonic
| x   Mute note
| b   Bend
| pb  Pre-bend
| br  Bend release
| pbr Pre-bend release
| brb Bend release bend

************************************
Добавлено: 06.11.2015
Другие материалы по этой песне:
  • Аккорды и текст

Страница создана 06.11.2015
http://primanota.ru/jeff-tweedy/box-full-of-letters-chords.htm
Привет, Гость.
Предлагаем пройти революционный курс по гитаре.
Подарок от PrimaNota.Ru, забирай!