PrimaNota.ru - самый крупный в мире бесплатный архив песенных текстов, аккордов, табулатур и нот


Jeff The Brotherhood - Totally Confused - таба, видео

Регистрация Запомнить меня
Войти через:  Facebook Google Twitter Vk Yandex Mail.ru

Jeff The Brotherhood - Totally Confused - таба, видео

Печатать
Просмотров: 48
-------------------------------------------------------------------------------
                Totally Confused (Cover) Intro/Main Riff - JEFF The Brotherhood
-------------------------------------------------------------------------------
Tabbed by: Jadon D.
E-mail: jadonrdoyle@gmail.com

Off of their cover album/EP "Dig The Classics".
listen to recording for strumming pattern on the A5 and C5 chords
Drop D tuning isn't really needed but that's how Jake Orrall plays it.


Tuning: Drop D

    F5           G#5             C5                           A5
e|---------------------------------------------------------------------------|
B|---------------------------------------------------------------------------|
G|---------------------------------------------------------------------------|
D|---3------3------6-----6--------10---10-------10--10---------7-------------|
A|---3------3------6-----6--------10---10-------10--10---------7-------------|
D|---3------3------6-----6--------10---10-------10--10---------7-------------|
                                                               ^
                                            (strum this power chord for a full measure)

     F5             G#5         C5                                 A5
e|---------------------------------------------------------------------------|
B|---------------------------------------------------------------------------|
G|---------------------------------------------------------------------------|
D|-------3------------6---------------10-----10--11--10-------------7--------|
A|-----3---3--------6---6----------10----10--------------11---------7--------|
E|---3------------6-------------10----------------------------------7--------|
                                                                    ^
                                                  (strum this power chord for a full measure)




************************************

| /   slide up
| \   slide down
| h   hammer-on
| p   pull-off
| ~   vibrato
| +   harmonic
| x   Mute note
| b   Bend
| pb  Pre-bend
| br  Bend release
| pbr Pre-bend release
| brb Bend release bend


************************************
Добавлено: 18.06.2016
Другие материалы по этой песне:
  • Аккорды и текст

Страница создана 18.06.2016
http://primanota.ru/jeff-the-brotherhood/totally-confused-chords.htm
Привет, Гость.
Предлагаем пройти революционный курс по гитаре.
Подарок от PrimaNota.Ru, забирай!