PrimaNota.ru - самый крупный в мире бесплатный архив песенных текстов, аккордов, табулатур и нот


Jeff The Brotherhood - Hey Friend - таба, видео

Регистрация Запомнить меня
Войти через:  Facebook Google Twitter Vk Yandex Mail.ru

Jeff The Brotherhood - Hey Friend - таба, видео

Печатать
Просмотров: 75
Sorry no intro. Also he uses multiple guitar tracks on the recording but this was 
made for one guitar to play.


1:43
    I've been thi...mom
e|--------------------------------------|
B|--------------------------------------|
G|------------------------------7-------|
D|------7-9-9-7-----9-9-99-77-x-7---0---|
A|---s9---------9-7-9-9-99-77-x-5-------|
E|------------------7-7-77-55-x---------|


e|----------------------------------------|
B|----------------------------------------|
G|--------------------------------7-------|
D|------7-9-9-9-7-----9-9-99-77-x-7---0---|
A|---s9-----------9-7-9-9-99-77-x-5-------|
E|--------------------7-7-77-55-x---------|


e|--------------------------------------|
B|--------------------------------------|
G|------------------------------7-------|
D|------7-9-9-7-----9-9-99-77-x-7---0---|
A|---s9---------9-7-9-9-99-77-x-5-------|
E|------------------7-7-77-55-x---------|


e|-------------------------------------------------------------|
B|-------------------------------------------------------------|
G|---------------------------------------------7-7-7777-7777---|
D|------7-9-9-7-------7---------5-55-5555-5555-7-7-7777-7777---| 
A|---s9---------9-7-9---9-7-9-7-5-55-5555-5555-5-5-5555-5555---|
E|------------------------------3-33-3333-3333-----------------|


 Add distortion
  
     I've been th...dad       
e|--------------------------------------|
B|--------------------------------------|
G|------------------------------7-------|
D|--0---7-9-9-7-----9-9-99-77-x-7-------|
A|---s9---------9-7-9-9-99-77-x-5-------|
E|------------------7-7-77-55-x---------|


e|----------------------------------------|
B|----------------------------------------|
G|--------------------------------7-------|
D|------7-9-9-9-7-----9-9-99-77-x-7---0---|
A|---s9-----------9-7-9-9-99-77-x-5-------|
E|--------------------7-7-77-55-x---------|


e|--------------------------------------|
B|--------------------------------------|
G|------------------------------7-------|
D|------7-9-9-7-----9-9-99-77-x-7---0---|
A|---s9---------9-7-9-9-99-77-x-5-------|
E|------------------7-7-77-55-x---------|



e|-------------------------------------------------------------|
B|-------------------------------------------------------------|
G|---------------------------------------------7-7-7777-7777---|
D|--0---7-9-9-7-------7---------5-55-5555-5555-7-7-7777-7777---| 
A|---s9---------9-7-9---9-7-9-7-5-55-5555-5555-5-5-5555-5555---|
E|------------------------------3-33-3333-3333-----------------|


e|------------|
B|------------|
G|------------|
D|------------|
A|------------|
E|---10-9-7-5-|


e|---------------------------|
B|---------------------------|
G|-----------7---------------| x 2
D|-------7-9---9-7-9p7-------|
A|-5h7s9---------------9-5---|
E|---------------------------|


e|---------------------------------7---|
B|---------------7---7---7-10-7-10-----|
G|---7---7-9-7-9-------9---------------|
D|-----9-------------------------------|
A|-------------------------------------|
E|-------------------------------------|


e|---------------------------|
B|---------------------------|
G|-----------7---------------| x 2
D|-------7-9---9-7-9p7-------|
A|-5h7s9---------------9-5---|
E|---------------------------|


e|-----------------------------------7---7-10-7-10-12-10-12-14v----|
B|---------------7---7-8-7-8-10-8-10--10---------------------------|
G|---7---7-9-7-9---9-----------------------------------------------|
D|-----9-----------------------------------------------------------|
A|-----------------------------------------------------------------|
E|-----------------------------------------------------------------|

    I've been thi...sister
e|--------------------------------------|
B|--------------------------------------|
G|------------------------------7-------|
D|------7-9-9-7-----9-9-99-77-x-7---0---|
A|---s9---------9-7-9-9-99-77-x-5-------|
E|------------------7-7-77-55-x---------|


e|----------------------------------------|
B|----------------------------------------|
G|--------------------------------7-------|
D|------7-9-9-9-7-----9-9-99-77-x-7---0---|
A|---s9-----------9-7-9-9-99-77-x-5-------|
E|--------------------7-7-77-55-x---------|


e|--------------------------------------|
B|--------------------------------------|
G|------------------------------7-------|
D|------7-9-9-7-----9-9-99-77-x-7---0---|
A|---s9---------9-7-9-9-99-77-x-5-------|
E|------------------7-7-77-55-x---------|



e|------------------------------------------------|
B|------------------------------------------------|
G|------------------------------------------------|
D|------7-9-9-7-------7---------5-55-5555-5555----| 
A|---s9---------9-7-9---9-7-9-7-5-55-5555-5555----|
E|------------------------------3-33-3333-3333----|



e|--------------------------------------------------------------|
B|--------------------------------------------------------------|
G|---7--9---9-7-9--11--11-9-7s14--12-11--11-12-11-9--9-7-9--7---|
D|--------------------------------------------------------------|
A|--------------------------------------------------------------|
E|--------------------------------------------------------------|
Добавлено: 07.08.2013
Вам также может быть интересно:
Другие материалы по этой песне:
  • Аккорды и текст

Страница создана 07.08.2013
http://primanota.ru/jeff-the-brotherhood/hey-friend-chords.htm
Привет, Гость.
Предлагаем пройти революционный курс по гитаре.
Подарок от PrimaNota.Ru, забирай!