PrimaNota.ru - самый крупный в мире бесплатный архив песенных текстов, аккордов, табулатур и нот


Jeff The Brotherhood - Heavy Days - таба, видео

Регистрация Запомнить меня
Войти через:  Facebook Google Twitter Vk Yandex Mail.ru

Jeff The Brotherhood - Heavy Days - таба, видео

Печатать
Просмотров: 79
-------------------------------------------------------------------------------
                             HEAVY DAYS - Jeff The Brotherhood
-------------------------------------------------------------------------------
Tabbed by: simonisturbo
E-mail:

This song is pretty straight forward. I think it's all good but feel free to write 
any suggestions you may have in the comments.
Enjoy!

Tuning: Drop D

INTRO
e|---------------------------|
B|---------------------------|
G|---------------------------|
D|---------------10----------| x4
A|-12---12-10-12----12-10----|
D|--0------------------------|
                                   } x4
e|---------------------------|       
B|---------------------------|
G|---------------------------|
D|-10-8------12-10-----------| x1
A|--8---10-8-10----10-12-----|
D|--8--------10--------------|


VERSE
e|-----------------------------------------------|
B|-----------------------------------------------|
G|-----------------------------------------------|
D|-12--12-10-12--12-10-12--12-10-12--12-10-12----| x4
A|-12--12-10-12--12-10-12--12-10-12--12-10-12----|
D|-----------------------------------------------|
                                                        } x2
e|-----------------------------------------------|
B|-----------------------------------------------|
G|-----------------------------------------------|
D|-8--8-8--10--10-10-----------------------------| x1
A|-8--8-8--10--10-10-----------------------------|
D|-----------------------------------------------|


PRE-CHORUS
e|--------------------------------------|
B|--------------------------------------|
G|--------------------------------------|
D|-12-12--12-10h12-12-10h12--------0----| x4
A|-12-12--------------------10h12--0----|
D|-12-12---------------------------0----|


CHORUS
e|---------------------------|
B|---------------------------|
G|---------------------------|
D|---------------10----------| x4
A|-12---12-10-12----10-12----|
D|--0------------------------|
                                   } x2 (CLEAN)
e|---------------------------|       
B|---------------------------|
G|---------------------------|
D|-10-8------12-10-----------| x1
A|--8---10-8-10----10-12-----|
D|--8--------10--------------|

e|---------------------------|
B|---------------------------|
G|---------------------------|
D|---------------10----------| x4
A|-12---12-10-12----10-12----|
D|--0------------------------|
                                   } x2 (FUZZ)
e|---------------------------|       
B|---------------------------|
G|---------------------------|
D|-10-8------12-10-----------| x1
A|--8---10-8-10----10-12-----|
D|--8--------10--------------|


VERSE
e|-----------------------------------------------|
B|-----------------------------------------------|
G|-----------------------------------------------|
D|-12--12-10-12--12-10-12--12-10-12--12-10-12----| x4
A|-12--12-10-12--12-10-12--12-10-12--12-10-12----|
D|-----------------------------------------------|
                                                        } x2
e|-----------------------------------------------|
B|-----------------------------------------------|
G|-----------------------------------------------|
D|-8--8-8--10--10-10-----------------------------| x1
A|-8--8-8--10--10-10-----------------------------|
D|-----------------------------------------------|


PRE-CHORUS
e|--------------------------------------|
B|--------------------------------------|
G|--------------------------------------|
D|-12-12--12-10h12-12-10h12--------0----| x4
A|-12-12--------------------10h12--0----|
D|-12-12---------------------------0----|


(BREAK)


SOLO (RYTHYM)
e|-----------------------------------------------|
B|-----------------------------------------------|
G|-----------------------------------------------|
D|-12--12-10-12--12-10-12--12-10-12--12-10-12----| x4
A|-12--12-10-12--12-10-12--12-10-12--12-10-12----|
D|-----------------------------------------------|
                                                        } x4
e|-----------------------------------------------|
B|-----------------------------------------------|
G|-----------------------------------------------|
D|-8--8-8--10--10-10-----------------------------| x1
A|-8--8-8--10--10-10-----------------------------|
D|-----------------------------------------------|


PRE-CHORUS
e|--------------------------------------|
B|--------------------------------------|
G|--------------------------------------|
D|-12-12--12-10h12-12-10h12--------0----| x4
A|-12-12--------------------10h12--0----|
D|-12-12---------------------------0----|


************************************

| /   slide up
| \   slide down
| h   hammer-on
| p   pull-off
| ~   vibrato
| +   harmonic
| x   Mute note
| b   Bend
| pb  Pre-bend
| br  Bend release
| pbr Pre-bend release
| brb Bend release bend

************************************
Добавлено: 01.07.2013
Другие материалы по этой песне:
  • Аккорды и текст

Страница создана 01.07.2013
http://primanota.ru/jeff-the-brotherhood/heavy-days-chords.htm
Привет, Гость.
Предлагаем пройти революционный курс по гитаре.
Подарок от PrimaNota.Ru, забирай!