PrimaNota.ru - самый крупный в мире бесплатный архив песенных текстов, аккордов, табулатур и нот


Jeff The Brotherhood - Growing - таба, видео

Регистрация Запомнить меня
Войти через:  Facebook Google Twitter Vk Yandex Mail.ru

Jeff The Brotherhood - Growing - таба, видео

Печатать
Просмотров: 101
some of the x#'s may be a couple off but i did try to actually count. enjoy :)

e|--------------------------------------------------|
B|--------------------------------------------------|
G|--------------------------------------------------|
D|-9------------------------------------------------|
A|-9--x33-------------------------------------------|
D|-9------------------------------------------------|
                                                     >x4
e|--------------------------------------------------|
B|--------------------------------------------------|
G|--------------------------------------------------|
D|-13-13-11-11-9-9----------------------------------|
A|--------------------------------------------------|
D|--------------------------------------------------|
on the last few strums of the first part^(can be played separate or incorporated. I will 
have it incorporated later in the tab)

e|--------------------------------------------------|
B|--------------------------------------------------|
G|--------------------------------------------------|
D|-3------4b--3-------4b----------------------------|
A|-3-x15--4b--3-x7----------------------------------|
D|-3------4b--3-------------------------------------|

e|--------------------------------------------------|
B|--------------------------------------------------|
G|--------------------------------------------------|
D|-9------7h9-9------3------4b---3------4b----------|
A|-9-x16--7h9-9-x5---3-x15--4b---3-x7---------------|
D|-9------7h9-9------3------4b---3------------------|

e|---------------------------|
B|---------------------------|
G|---------------------------|
D|-9-------------------------|
A|-9-x33---------------------|
D|-9-------------------------|

e|----------------------------------------|
B|----------------------------------------|
G|----------------------------------------|
D|---9------13-13-11-11-9-----------------| x2
A|---9-x26--9--9--9--9--9-----------------|
D|---9------9--9--9--9--9-----------------|



e|--------------------------------------------------|
B|--------------------------------------------------|
G|--------------------------------------------------|
D|-3------4b--3-------4b----------------------------|
A|-3-x15--4b--3-x7----------------------------------|
D|-3------4b--3-------------------------------------|

e|-------------------------------------------------------------------------|
B|-------------------------------------------------------------------------|
G|-------------------------------------------------------------------------|
D|-9-9-9-9-9-11-12------9-11-12--9-11-12--9-11-15-15-15-15-15-14-12-9---9--|
A|-9-9-9-9-9-11-12-x4---9-11-12--9-11-12--9-11-15-15-15-15-15-14-12-9---9--|
D|-9-9-9-9-9-11-12------9-11-12--9-11-12--9-11-15-15-15-15-15-14-12-9---9--|

^then play this again quietly only on the E string(now tuned to D of course)
btw the second chunk may be off because its hard to tell what is being played

e|----------------------------------------|
B|----------------------------------------|
G|----------------------------------------|
D|---9------13-13-11-11-9-----------------| x3
A|---9-x26--9--9--9--9--9-----------------|
D|---9------9--9--9--9--9-----------------|


e|--------------------------------------------------|
B|--------------------------------------------------|
G|--------------------------------------------------|
D|-3------4b--3-------4b----------------------------|
A|-3-x15--4b--3-x7----------------------------------|
D|-3------4b--3-------------------------------------|

e|--------------------------------------------------|
B|--------------------------------------------------|
G|--------------------------------------------------|
D|-9------7h9-9-----3----2----1-----0---------------|
A|-9-x16--7h9-9-x5--3-x8-2-x8-1-x8--0---------------|
D|-9------7h9-9-----3----2----1-----0---------------|
Добавлено: 23.10.2013
Другие материалы по этой песне:
  • Аккорды и текст

Страница создана 23.10.2013
http://primanota.ru/jeff-the-brotherhood/growing-chords.htm
Привет, Гость.
Предлагаем пройти революционный курс по гитаре.
Подарок от PrimaNota.Ru, забирай!