PrimaNota.ru - самый крупный в мире бесплатный архив песенных текстов, аккордов, табулатур и нот


Jeff Rosenstock - Hey Allison - аккорды и текст, таба, видео

Регистрация Запомнить меня
Войти через:  Facebook Google Twitter Vk Yandex Mail.ru

Jeff Rosenstock - Hey Allison - аккорды и текст, таба, видео

Печатать
Просмотров: 147
Уроки эстрадного вокала в Санкт-Петербурге
Авторы: Jeff Rosenstock

Hey Allison
Jeff Rosenstock
Edit: I added the guitar solo. There is another guitar that plays 
during the solo but I  haven't figured that part yet but 
this one should be mostly right.

Intro/Verse
E|--x-----x--|
B|--x-----x--|
G|--6-----7--|
D|--7-----7--|
A|--x-----x--|
E|--x-----x--|
 
or

A D x2

A
 She's on the western side
D
 Looking at the Jersey Skyline
A
 She's in a real bad mood
D
 So she didn't right back to you
A
 She had the longest day
D
 And it's a gridlocked high way
A
 She's in a real bad mood
D                             F#
 So she didn't write back to you

F#         E            D
 Hey Allison! Hey Allison! Hey Allison!

The city is a total disaster without you around x2

A
 You spent the days inside
D
 Avoiding social landmines
A                       F#
 That poke at every bruise
F
 Is she gonna write back to you?
A
 You're an exhausted kid
D
 Of fractured relationships
A                        F#
 You wanna crush that gloom!
F                             F#
 is she gonna write back to you?

F#         E            D
 Hey Allison! Hey Allison! Hey Allison!

This permanent absence of friendship is making me ache


Solo
   F#               E              D
E|-----------------------------------------------------------------------
B|-----10------------10------------10------------------------------------
G|---------11--9---------11--9---------11--9-----------------------------
D|----------------9-------------9-------------9--11--11--11--11--11--11--
A|--9--------------------------------------------11--11--11--11--11--11--
E|-----------------------------------------------------------------------


 
   F#          E         D
E|------------------------------------------------------
B|-----10------------10---------14--14--14--14--14--14--
G|---------11--9---------11--9--13--13--13--13--13--13--
D|----------------9-------------14--14--14--14--14--14--
A|--9---------------------------------------------------
E|------------------------------------------------------
    Hey Allison!     Hey Allisoo0O0oO0ooOooOoOO0OoOoooOOn!

Outro
A F# A D A F# F x2
Добавлено: 05.08.2015
Другие материалы по этой песне:
  • Аккорды и текст

Страница создана 05.08.2015
http://primanota.ru/jeff-rosenstock/hey-allison-chords.htm
Привет, Гость.
Предлагаем пройти революционный курс по гитаре.
Подарок от PrimaNota.Ru, забирай!